Újra Együtt (Ossian) Gitártab és Akkordok

Az Újra együtt az Ossian hatodik nagylemezének, az Emberi dolgoknak a nyitódala. Talán azért, mert a cím utalhat arra is, hogy a zenekar “újra együtt van” a rajongóival, ennek az albumnak a segítségével: “A Shownak folytatódni kell”. A dalszöveg azonban szólhat egészen másról is, például két szerelmesről: “Amit érzel, azt érzem én”. Az üzenete mindenesetre pozitív és érdemes megfogadni: “A kárhozattól mégse félek/ Sodródom tovább, a jóra várva/ Kétségek között s mégis bízva”. Mint a lemez többi felvételét, ezt is erős dallamok és gazdag vokálok jellemzik. Ezen az albumon Paksi Endre és Maróthy Zoltán énekhangja mellett Tobola Csaba hangja csendül fel a vokálban.

Ossian: Újra együtt

Kéred a legnépszerűbb dalok kottáit PDF-ben az emailedre INGYEN??

Ákos - Edda - Beatles - Republic - Quimby - LGT - Kispál és a Borz - Zorán - Rod Stewart - Nagy Feró és sokan mások....

Refrén / Kezdő RIFF
                                                                        
E||-------------------------|---------------------|--------------------|
B||-------------------------|---------------------|--------------------|
G||-------------------------|---------------------|--5-----------------|
D||-------------------------|---------------------|--5--------5--------|
A||--3--2--0-------2--3--5/-|---------------------|--3--------5--------|
E||-----------3~------------|----1--3--5~---------|-----------3--------|

                                                                    
-------------------|-------------------------|---------------------|
-------------------|-------------------------|---------------------|
-------------------|-------------------------|---------------------|
--3----------------|-------------------------|---------------------|
--3----------------|--3--2--0-------2--3--5/-|---------------------|
--1----------------|-----------3~------------|----1--3--5~---------|

                                           
---------------------|-------------------||
---------------------|-------------------||
---------------------|-------------------||
--3------3----3------|--5----------------||
--3------3----3------|--5----------------||
--1------1----1------|--3----------------||



Szóló 1. (a szám elején és végén) - gitár 1.
                                                               
E||--------------------------------|--------------------------|
B||--15r--13-------15----15--------|--------------------------|
G||----------14-12-------------10--|--10h-12--12h-9--9~-------|
D||--------------------------------|--------------------------|
A||--------------------------------|--------------------------|
E||--------------------------------|--------------------------|

                                                                              
--------------------------|-------------------------|---------------------5--|
--13~-------12r--10-------|-------------------------|-----------8----8-------|
----------------------12--|------------9--12~-------|--5h-7h-5---------------|
--------------------------|----10--10---------------|------------------------|
--------------------------|-------------------------|------------------------|
--------------------------|-------------------------|------------------------|

                                                                  
----5--7--8~-------0--|--17r--15-------17r--15-------------------|
----------------------|----------17h15---------17h15-------------|
----------------------|------------------------------17h14/12h14-|
----------------------|------------------------------------------|
----------------------|------------------------------------------|
----------------------|------------------------------------------|

                              
------------------15~-------||
----------12----------------||
--12----------12------------||
------12--------------------||
----------------------------||
----------------------------||


Szóló 1. (a szám elején és végén) - gitár 2.
                                                              
E||--13b--12-------13~---13--------|-------------------------|
B||----------15-13-------------10--|--10h-12--12h-8~---------|
G||--------------------------------|-------------------------|
D||--------------------------------|-------------------------|
A||--------------------------------|-------------------------|
E||--------------------------------|-------------------------|


--------------------|-------------------|-----------7~---7----8--|
--------------------|-------------------|--5--6--5---------------|
--5-----------------|-------------------|------------------------|
--5--------5--------|--3----------------|------------------------|
--3--------5--------|--3----------------|------------------------|
-----------3--------|--1----------------|------------------------|

                                                                   
----8--10--12~---------|---------------------|-------------------||
-----------------------|---------------------|-------------------||
-----------------------|---------------------|-------------------||
-----------------------|--3------3----3------|--5----------------||
-----------------------|--3------3----3------|--5----------------||
-----------------------|--1------1----1------|--3----------------||


Kíséret (RIFF II.)
                                                                          
E||---------------------|--------------------------|---------------------|
B||---------------------|--------------------------|---------------------|
G||--2----5----4--------|--------------------------|--2----5----4--------|
D||--2----2----3--------|-----------------5-----7--|--2----2----3--------|
A||---------------------|--0--0--0--0--0--3--0--5--|---------------------|
E||---------------------|--------------------------|---------------------|

                           
-------------------------||
-------------------------||
-------------------------||
-------------------------||
--------------3h-2--3~---||
--1--1--1--1-------------||


RIFF III. ("A függöny értünk...")
                                                        
E||-------------------------|--------------------------|
B||-------------------------|--------------------------|
G||-------------------------|--------------------------|
D||--7----------------------|--------------------------|
A||--5----5--5--5--5--5--5--|--5--5--5--5--8--0--7--0--|
E||-------------------------|--------------------------|

                                                                            
-------------------------|------------------------|------------------------|
-------------------------|------------------------|------------------------|
-------------------------|------------------------|------------------------|
--7----------------------|--2---------------------|------------------------|
--5----5--5--5--5--5--5--|--3----3--3--3--3--3----|--2~---2--2--2--2--2----|
-------------------------|------------------------|------------------------|

                                                     
------------------------|--------------------------||
------------------------|--------------------------||
------------------------|--2----2----2----2--------||
-------------------3----|--2----2----2----2--------||
--1~---1--1--1--1--1----|--0----0----0----0--------||
------------------------|--------------------------||


Szóló bevezető (végig tapping)
                                                                             
E||-------------------------------------|-----------------------------------|
B||-------------------------------------|-----------------------------------|
G||-------------------------------------|-----------------------------------|
D||--0h3h5h0h3h7h5h7h10h7h0h3h7h0h3h5h7t|--0h3h5h0h3h7h5h10h7h0h3h7h0h3h5h7t|
A||-------------------------------------|-----------------------------------|
E||-------------------------------------|-----------------------------------|

                                                                      
-----------------------------------|---------------------------------|
-----------------------------------|---------------------------------|
-----------------------------------|---------------------------------|
--0h3h5h0h3h7h5h10h7h0h3h7h0h3h5h7t|--0h3h5h0h3h7h5h10h7h0h3h7h10~---|
-----------------------------------|---------------------------------|
-----------------------------------|---------------------------------|

                                                                        
-----------------------------------|-----------------------------------|
-----------------------------------|-----------------------------------|
-----------------------------------|-----------------------------------|
--0h3h5h0h3h7h5h10h7h0h3h7h0h3h5h7t|--0h3h5h0h3h7h5h10h7h0h3h7h0h3h5h7t|
-----------------------------------|-----------------------------------|
-----------------------------------|-----------------------------------|

                                                                        
-----------------------------------|-----------------------------------|
-----------------------------------|-----------------------------------|
-----------------------------------|-----------------------------------|
--0h3h5h0h3h7h5h10h7h0h3h7h0h3h5h7t|--0h3h5h0h3h7h5h10h7h0h3h7h0h3h5h7t|
-----------------------------------|-----------------------------------|
-----------------------------------|-----------------------------------|

Szóló
                                                                 
--------------------------|--10r--8-----------------------------|
-------8r--5-8h10--10~----|---------10h8------------------------|
--9-----------------------|--------------10h9h7/5h7h5---5h7h5---|
--7-----------------------|---------------------------7-------7-|
--------------------------|-------------------------------------|
--------------------------|-------------------------------------|

                                               
----------------------|--5----5---------------|
----------------------|--5----5---------------|
--5~--7---5--7b-------|----------9--------14--|
----------------------|----------7------------|
----------------------|-----------------------|
----------------------|-----------------------|

                                                   
--------------------------------------------------|
--------------------------------------------------|
--14h12-------16h12h14h12-------16h12h14h12-------|
--------14h12-------------14h12-------------14h12-|
--------------------------------------------------|
--------------------------------------------------|

                                                   
--------------------------------------------------|
--------------------------------------------------|
--17h12h14h12-------17h16h14h12----12h14h12-------|
--------------14h12-------------14----------14h12-|
--------------------------------------------------|
--------------------------------------------------|

                                                                              
--------------------------------------------------|--------------------------|
--------------15h12-------------15h12-------------|----------------------15--|
--14h12-------------14h12-------------14h12----12-|--12----12----------------|
--------14h12-------------14h12-------------14----|--12----12--14------------|
--------------------------------------------------|------------12------------|
--------------------------------------------------|--------------------------|

                                                         
----------------------12-------|------------------------|
--15b-----------15-12----15-12-|------------------------|
-------------------------------|--14b-------12----------|
-------------------------------|---------------14~------|
-------------------------------|------------------------|
-------------------------------|------------------------|

                                                         
--12--14--15--14h15h14----------------------------------|
--12-------------------17h15h17h14h15h14----------14h15h|
-----------------------------------------16h15h16-------|
--------------------------------------------------------|
--------------------------------------------------------|
--------------------------------------------------------|

                                                              
--------------------------------|--14b-----12----12--15--17--|
--14----------------------------|----------------------------|
-----16h15h16h15h12--12~--------|----------------------------|
--------------------------------|----------------------------|
--------------------------------|----------------------------|
--------------------------------|----------------------------|

                                                            
--19----22--17--17~-------|--------------------------------|
--------------------------|--8h7---------------------------|
--------------------------|------9h7-----9h7---------------|
--------------------------|----------9h7-----9h7-----------|
--------------------------|----------------------10h7/5~---|
--------------------------|--------------------------------|

                         
-----------------------||
-----------------------||
-----------------------||
-----------------------||
--2--0-----------------||
--------3h2-0~---------||


Refrén II. (a szóló után)
                                                        
E||-------------------------|--------------------------|
B||-------------------------|--------------------------|
G||-------------------------|--------------------------|
D||--5----------------------|--------------------------|
A||--3----3--3--3--3--3--3--|--3--3--3--3--3--3--3--3--|
E||-------------------------|--------------------------|

                                                                        
-------------------------|-------------------|-------------------------|
-------------------------|-------------------|-------------------------|
-------------------------|-------------------|-------------------------|
-------------------------|-------------------|--5----------------------|
--3--3--3--3--3--3--3----|--3----------------|--3----3--3--3--3--3--3--|
-------------------------|--1----------------|-------------------------|

                                                                          
--------------------------|-------------------------|-------------------||
--------------------------|-------------------------|-------------------||
--------------------------|-------------------------|-------------------||
--------------------------|-------------------------|-------------------||
--3--3--3--3--3--3--3--3--|--3--3--3--3--3--3--3----|--5----------------||
--------------------------|-------------------------|--3----------------||

Újra Együtt (Ossian) Gitártab és Akkordok