Ballada a Senki Fiáról (Ossian) Gitártab és Akkordok

A Ballada a Senki Fiáról című dal Francois Villon versének a megzenésítése, a Faludy György-féle fordítás szerint. A zenekar hetedik, Keresztút című albumán található. Az 1994 márciusában megjelent nagylemez felvételeit a P. Stúdió készítette, és a Hungaroton kiadó jelentette meg. Ez a lemez a Paksi-Maróthy-korszak utolsó darabja. Stílusát tekintve visszafogott, igényes hard rock, erős dalszövegekkel. A Ballada a Senki Fiáról az 5. felvétel a lemezen, arról szól, hogy lehet még csodálni a világot, ha sok fájdalmat kaptunk is már az élettől.

Ossian: Ballada a Senki Fiáról

Kéred a legnépszerűbb dalok kottáit PDF-ben az emailedre INGYEN??

Ákos - Edda - Beatles - Republic - Quimby - LGT - Kispál és a Borz - Zorán - Rod Stewart - Nagy Feró és sokan mások....

RIFF I. (2x)
                                                                
D#||----------------------------|------------------------------|
A#||----------------------------|------------------------------|
F#||----------------------------|------------------------------|
C#||----------------------------|------------------------------|
G#||----------------------------|------------------------------|
D#||--5--5--5--5-5-3--5--5--5-5-|--5--3--5-3-3--5--0-0-3-3-4-4-|

                                                                                
---------------------------|-----------------------------|
---------------------------|-----------------------------|
---------------------------|-----------------------------|
---------------------------|-----------------------------|
---------------------------|--------3------------5-------|
--5--5--5--5-5-3--5----0-0-|--1--1----1-1--3--3----3-3-3-|



Kíséret (2x)
                                                                                
|---------------------|-----------------------------|
|---------------------|-----------------------------|
|---------------------|-----------------------------|
|---------------------|-----------------------------|
|--7--------5--7------|-----------------------------|
|--5--------3--5------|--5--3--5--3--5--0-0-3-3-4-4-|

                                                     
|----------------------|------------------------------|
|----------------------|------------------------------|
|----------------------|------------------------------|
|----------------------|------------------------------|
|--7--------5--7-------|--3--3--3-------------5-------|
|--5--------3--5----0--|--1--1----1-1-1-3--3----3-3-3-|



Átkötő
                                                           
|---------------------------|---------------------------|
|---------------------------|---------------------------|
|---------------------------|---------------------------|
|--------4----3----2--------|---------------------------|
|--2--2-----2----2----5--2--|--2--0--2-2-0--2-----0--1--|
|---------------------------|------------------2--------|

                                                        
---------------------------|--------------------------|
---------------------------|--------------------------|
---------------------------|--------------------------|
--------4----3----2--------|--------------------------|
--2--2-----2----2----5-----|--------5-------2~--------|
------------------------2--|--3--3----3-3-3-0~--------|



Refrén (2x)

|----------------------------------|----------------------------------|
|----------------------------------|----------------------------------|
|----------------------------------|----------------------------------|
|----------------------------------|----------------------------------|
|--5-5-5-5-5-5-5-5-4-4-4-4-4-4-4-4-|--3-3-3-3-3-3-3-3-2-2-2-2-2-2-2-2-|
|----------------------------------|----------------------------------|
                                                                      
----------------------------------|----------------------------------|
----------------------------------|----------------------------------|
----------------------------------|----------------------------------|
----------------------------------|----------------------------------|
--1-1-1-1-1-1-1-1-0-0-0-0-0-0-0-0-|--3-3-3-3-3-3-3-3-----------------|
----------------------------------|------------------3-3-3-3-3-3-3-3-|


Szóló előtti (3x) - "Bár nincs hazám..."

|----------------------|----------------------|
|----------------------|----------------------|
|----------------------|----------------------|
|--5----5----2------2--|----2--5--5--5--------|
|--3----2----0------0--|----0--2--2--3--------|
|----------------------|----------------------|

                                                                         
|----------------------|--------------------------|
|----------------------|--------------------------|
|----------------------|--------------------------|
|--5----5--------------|--------------2--2-2-2----|
|--3----2----5---------|--3--3-3-3----0--0-0-0----|
|------------3------0--|--1--1-1-1----------------|



Szóló                                                        

--12----10----12------12/-|--15--13--12------12--------|
--------------------------|--------------15------------|
--9-----7-----9-----------|----------------------------|
--------------------------|----------------------------|
--------------------------|----------------------------|
--------------------------|----------------------------|

                                                                              
--12h-15--15------------------|----------------------------------------------|
--------------15--15-------12r|----10----10h12h13h12h10----10h12h13h12h10----|
--9h--12--12------------------|-------12----------------12----------------12-|
--------------12--12----------|----------------------------------------------|
------------------------------|----------------------------------------------|
------------------------------|----------------------------------------------|

                                                            
--15----17b---17--------------|----------------------------|
------------------17----------|----------------------------|
----------------------14/-10--|----------------------------|
------------------------------|--10--10/-12--12/-14~-------|
--------------------------12--|----------------------------|
------------------------------|----------------------------|

                                                                 
--20--19h20-17h19-15--------------------------------------------|
----------------------17h15h17h15h17h15h17h15h17h15h13----------|
-------------------------------------------------------16-14h16h|
----------------------------------------------------------------|
----------------------------------------------------------------|
----------------------------------------------------------------|

                                                              
------------------------------------------------------------||
------------------------------------------------------------||
--17h19h17h16h14--------------------------------------------||
-----------------19h14h15h17h19h17h15h14--------------------||
-----------------------------------------19h15h14h12~-------||
------------------------------------------------------------||

Ballada a Senki Fiáról (Ossian) Gitártab és Akkordok