Szeretnék visszamenni hozzád (Omega) Gitártab és Akkordok

Az Omega már évtizedek óta jól ismert zenekar magyar és nemzetközi szinten is. Első magyar nagylemeze 1968-ban jelent meg azután, hogy az Egyesült Királyságban elkészült az Omega Red Star című lemeze. E hír hallatára a MHV azonnal engedélyt adott az Omegának egy magyar nyelvű album felvételére. Így jelent meg az Omega együttes első magyar könnyűzenei albuma a Trombitás Frédi és a rettenetes emberek. Ezen a lemezen jelent meg a Szeretnék visszamenni hozzád című dal is. A dal bocsánatkérésről szól. Mindent megbánt, amit tett és semmi mást nem szeretne jobban, mint hogy a kedvesével lehessen.

          
          Omega - Szeretnék visszamenni hozzád


Befejezés:
  e |3-------3-----3-----3----------|---3-
  H |3-----3---3--------------------|---3-
  G |4-----------6---6-5---5-4------|---4-
  D |5---------------------------3-4|---5-
  A |5------------------------------|---5-
  E |3------------------------------|---3-


Basszus (versszak):
     G               G               D#      G#  D   G
  e |---------------|---------------|---------------|---------------|
  H |---------------|---------------|---------------|---------------|
  G |---------------|---------------|---------------|---------------|
  D |---------------|---------------|--------6--6---|---------------|
  A |----5-5-----5-5|----5-5-----5-5|6--6--6-----6-6|----5-5-----5-5|
  E |3--3----3--3---|3--3----3--3---|----6----------|3--3----3--3---|
     D               D#7     D7      G       C       G
  e |---------------|---------------|---------------|---------------|
  H |---------------|---------------|---------------|---------------|
  G |---------------|---------------|---------------|---------------|
  D |---------------|---------------|---------------|---------------|
  A |5-------5-----5|4-------5-3----|--------3-3-3-3|---------------|
  E |----5-------5--|--6-3-3-----6-5|3-3-3-3--------|3-3-3-3-3--3---|


D


           G                         \
Szeretnék visszamenni hozzád, kedvesem,
            D#    -    G#   =  D      G
Megbántam mindent igazán, hidd el nekem!
D                     D#7     -     D7
Rájöttem, hogy nálad jobbat nem találhat senki sem,
G-C      (G-)  D
    Kedvesem.


Szeretném kezed fogni újra csendesen,
Ülni és elmesélni, hogy mi volt velem.
Úgy zajlik az élet, az ember megtévedhet, azt hiszem,
G-C      G 
    Kedvesem.


G


 G                  \
Körülöttem nagy tömeg
 A                 D
De én egyedül megyek
 C
Csak téged látlak
 G
Csak téged hívlak
 C                 D
Csak téged várlak én


Szeretnék visszamenni hozzád, kedvesem,
Mit bánom, akár könnyen, akár nehezen.
Hosszú éjszakákon ne legyek t“led távol sohasem,
Kedvesem.


           D
Szeretnék visszamenni hozzád,
 D#7    -    D7           G|
Visszamenni hozzád, kedvesem

Szeretnék visszamenni hozzád (Omega) Gitártab és Akkordok

Kéred a legnépszerűbb dalok kottáit PDF-ben az emailedre INGYEN??

Ákos - Edda - Beatles - Republic - Quimby - LGT - Kispál és a Borz - Zorán - Rod Stewart - Nagy Feró és sokan mások....