Főleg Barbara (Prosectura) Gitártab és Akkordok

A szám egy lányról szól, akit főleg Barbarának szoktak hívni. Megtudjuk, hogy az énekes mikor látta meg először, és hogy beleszeretett. Minden éjjel róla álmodik, virágot szed neki, úgy érzi, “jó nála”. Azt is elmondja az előadó, hogy a lány helyében beleszeretne egy olyan hülyébe, mint amilyen ő. Az énekest bátyja óva inti a hasonló lányoktól, mint Barbara. A végén kiderül, hogy miért: mert már ő szerezte meg magának.

     Prosectura - Főleg Barbara



Bevezető és átvezető:
  e |---------------|---------------|
  H |--4---6----3---|--4---6--------|
  G |--3---5-3-5--53|--3---5-3-53-35|  (x3)
  D |5---7----------|5---7----------|
  A |---------------|---------------|
  E |---------------|---------------|
  e |---------------|---------------|---------------|
  H |--4---6----3---|---------------|---------------|
  G |--3---5-3-5--53|---------------|---------------|
  D |5---7----------|5-5-----3-3----|3--------------|
  A |---------------|6-6-----3-3----|1--------------|
  E |---------------|---------------|---------------|


A#     \         \            A# - C#
Május tizedikén láttam őt meg
A#     \           F    \
Barbarának hívják főleg
D#     \          A#      \
Minden éjjel róla álmodom
 Cm    \                   F       \
Vajon mik ezek a foltok az ágyamon


A bátyám szerint komplett hülye vagyok
Kis kurvákból lesznek a nagyok
Mégis szedtem neki virágot
Ezért a parkőr jól szájba vágot


  D#-F A# D#-F A#
||: Lala...   Barbara :|| (x3)
D#-F A#  D# F A#  \
Lala... Barbara


Úgy érzem jó vagyok nála
Mert mikor meglát habzik a szája
Nem haboznék az ő helyébe
Én beleszeretnék egy ilyen hülyébe


A bátyám szerint komplett hülye vagyok
Kis kurvákból lesznek a nagyok
Sosem néztem ilyen nagyon banbán
Mikor Barbi pörgött a bátyám farkán


Lala...

Főleg Barbara (Prosectura) Gitártab és Akkordok

Kéred a legnépszerűbb dalok kottáit PDF-ben az emailedre INGYEN??

Ákos - Edda - Beatles - Republic - Quimby - LGT - Kispál és a Borz - Zorán - Rod Stewart - Nagy Feró és sokan mások....