Ossian kategória bejegyzései

Az Ossian az egyik legsikeresebb magyar heavy metal zenekar. Az együttes pályafutása 1986-ban kezdődött. A zenekart Paksi Endre és Maróthy Zoltán gitáros alapította. Az alapító páros több rocker himnuszt is írt a rajongók nagy örömére.

Ballada a Senki Fiáról (Ossian) Gitártab és Akkordok

A Ballada a Senki Fiáról című dal Francois Villon versének a megzenésítése, a Faludy György-féle fordítás szerint. A zenekar hetedik, Keresztút című albumán található. Az 1994 márciusában megjelent nagylemez felvételeit a P. Stúdió készítette, és a Hungaroton kiadó jelentette meg. Ez a lemez a Paksi-Maróthy-korszak utolsó darabja. Stílusát tekintve visszafogott, igényes hard rock, erős dalszövegekkel. A Ballada a Senki Fiáról az 5. felvétel a lemezen, arról szól, hogy lehet még csodálni a világot, ha sok fájdalmat kaptunk is már az élettől.

Ossian: Ballada a Senki Fiáról

RIFF I. (2x)
                                                                
D#||----------------------------|------------------------------|
A#||----------------------------|------------------------------|
F#||----------------------------|------------------------------|
C#||----------------------------|------------------------------|
G#||----------------------------|------------------------------|
D#||--5--5--5--5-5-3--5--5--5-5-|--5--3--5-3-3--5--0-0-3-3-4-4-|

                                                                                
---------------------------|-----------------------------|
---------------------------|-----------------------------|
---------------------------|-----------------------------|
---------------------------|-----------------------------|
---------------------------|--------3------------5-------|
--5--5--5--5-5-3--5----0-0-|--1--1----1-1--3--3----3-3-3-|



Kíséret (2x)
                                                                                
|---------------------|-----------------------------|
|---------------------|-----------------------------|
|---------------------|-----------------------------|
|---------------------|-----------------------------|
|--7--------5--7------|-----------------------------|
|--5--------3--5------|--5--3--5--3--5--0-0-3-3-4-4-|

                                                     
|----------------------|------------------------------|
|----------------------|------------------------------|
|----------------------|------------------------------|
|----------------------|------------------------------|
|--7--------5--7-------|--3--3--3-------------5-------|
|--5--------3--5----0--|--1--1----1-1-1-3--3----3-3-3-|



Átkötő
                                                           
|---------------------------|---------------------------|
|---------------------------|---------------------------|
|---------------------------|---------------------------|
|--------4----3----2--------|---------------------------|
|--2--2-----2----2----5--2--|--2--0--2-2-0--2-----0--1--|
|---------------------------|------------------2--------|

                                                        
---------------------------|--------------------------|
---------------------------|--------------------------|
---------------------------|--------------------------|
--------4----3----2--------|--------------------------|
--2--2-----2----2----5-----|--------5-------2~--------|
------------------------2--|--3--3----3-3-3-0~--------|



Refrén (2x)

|----------------------------------|----------------------------------|
|----------------------------------|----------------------------------|
|----------------------------------|----------------------------------|
|----------------------------------|----------------------------------|
|--5-5-5-5-5-5-5-5-4-4-4-4-4-4-4-4-|--3-3-3-3-3-3-3-3-2-2-2-2-2-2-2-2-|
|----------------------------------|----------------------------------|
                                                                      
----------------------------------|----------------------------------|
----------------------------------|----------------------------------|
----------------------------------|----------------------------------|
----------------------------------|----------------------------------|
--1-1-1-1-1-1-1-1-0-0-0-0-0-0-0-0-|--3-3-3-3-3-3-3-3-----------------|
----------------------------------|------------------3-3-3-3-3-3-3-3-|


Szóló előtti (3x) - "Bár nincs hazám..."

|----------------------|----------------------|
|----------------------|----------------------|
|----------------------|----------------------|
|--5----5----2------2--|----2--5--5--5--------|
|--3----2----0------0--|----0--2--2--3--------|
|----------------------|----------------------|

                                                                         
|----------------------|--------------------------|
|----------------------|--------------------------|
|----------------------|--------------------------|
|--5----5--------------|--------------2--2-2-2----|
|--3----2----5---------|--3--3-3-3----0--0-0-0----|
|------------3------0--|--1--1-1-1----------------|



Szóló                                                        

--12----10----12------12/-|--15--13--12------12--------|
--------------------------|--------------15------------|
--9-----7-----9-----------|----------------------------|
--------------------------|----------------------------|
--------------------------|----------------------------|
--------------------------|----------------------------|

                                                                              
--12h-15--15------------------|----------------------------------------------|
--------------15--15-------12r|----10----10h12h13h12h10----10h12h13h12h10----|
--9h--12--12------------------|-------12----------------12----------------12-|
--------------12--12----------|----------------------------------------------|
------------------------------|----------------------------------------------|
------------------------------|----------------------------------------------|

                                                            
--15----17b---17--------------|----------------------------|
------------------17----------|----------------------------|
----------------------14/-10--|----------------------------|
------------------------------|--10--10/-12--12/-14~-------|
--------------------------12--|----------------------------|
------------------------------|----------------------------|

                                                                 
--20--19h20-17h19-15--------------------------------------------|
----------------------17h15h17h15h17h15h17h15h17h15h13----------|
-------------------------------------------------------16-14h16h|
----------------------------------------------------------------|
----------------------------------------------------------------|
----------------------------------------------------------------|

                                                              
------------------------------------------------------------||
------------------------------------------------------------||
--17h19h17h16h14--------------------------------------------||
-----------------19h14h15h17h19h17h15h14--------------------||
-----------------------------------------19h15h14h12~-------||
------------------------------------------------------------||

Ballada a Senki Fiáról (Ossian) Gitártab és Akkordok

Újra Együtt (Ossian) Gitártab és Akkordok

Az Újra együtt az Ossian hatodik nagylemezének, az Emberi dolgoknak a nyitódala. Talán azért, mert a cím utalhat arra is, hogy a zenekar “újra együtt van” a rajongóival, ennek az albumnak a segítségével: “A Shownak folytatódni kell”. A dalszöveg azonban szólhat egészen másról is, például két szerelmesről: “Amit érzel, azt érzem én”. Az üzenete mindenesetre pozitív és érdemes megfogadni: “A kárhozattól mégse félek/ Sodródom tovább, a jóra várva/ Kétségek között s mégis bízva”. Mint a lemez többi felvételét, ezt is erős dallamok és gazdag vokálok jellemzik. Ezen az albumon Paksi Endre és Maróthy Zoltán énekhangja mellett Tobola Csaba hangja csendül fel a vokálban.

Ossian: Újra együtt

Refrén / Kezdő RIFF
                                                                        
E||-------------------------|---------------------|--------------------|
B||-------------------------|---------------------|--------------------|
G||-------------------------|---------------------|--5-----------------|
D||-------------------------|---------------------|--5--------5--------|
A||--3--2--0-------2--3--5/-|---------------------|--3--------5--------|
E||-----------3~------------|----1--3--5~---------|-----------3--------|

                                                                    
-------------------|-------------------------|---------------------|
-------------------|-------------------------|---------------------|
-------------------|-------------------------|---------------------|
--3----------------|-------------------------|---------------------|
--3----------------|--3--2--0-------2--3--5/-|---------------------|
--1----------------|-----------3~------------|----1--3--5~---------|

                                           
---------------------|-------------------||
---------------------|-------------------||
---------------------|-------------------||
--3------3----3------|--5----------------||
--3------3----3------|--5----------------||
--1------1----1------|--3----------------||



Szóló 1. (a szám elején és végén) - gitár 1.
                                                               
E||--------------------------------|--------------------------|
B||--15r--13-------15----15--------|--------------------------|
G||----------14-12-------------10--|--10h-12--12h-9--9~-------|
D||--------------------------------|--------------------------|
A||--------------------------------|--------------------------|
E||--------------------------------|--------------------------|

                                                                              
--------------------------|-------------------------|---------------------5--|
--13~-------12r--10-------|-------------------------|-----------8----8-------|
----------------------12--|------------9--12~-------|--5h-7h-5---------------|
--------------------------|----10--10---------------|------------------------|
--------------------------|-------------------------|------------------------|
--------------------------|-------------------------|------------------------|

                                                                  
----5--7--8~-------0--|--17r--15-------17r--15-------------------|
----------------------|----------17h15---------17h15-------------|
----------------------|------------------------------17h14/12h14-|
----------------------|------------------------------------------|
----------------------|------------------------------------------|
----------------------|------------------------------------------|

                              
------------------15~-------||
----------12----------------||
--12----------12------------||
------12--------------------||
----------------------------||
----------------------------||


Szóló 1. (a szám elején és végén) - gitár 2.
                                                              
E||--13b--12-------13~---13--------|-------------------------|
B||----------15-13-------------10--|--10h-12--12h-8~---------|
G||--------------------------------|-------------------------|
D||--------------------------------|-------------------------|
A||--------------------------------|-------------------------|
E||--------------------------------|-------------------------|


--------------------|-------------------|-----------7~---7----8--|
--------------------|-------------------|--5--6--5---------------|
--5-----------------|-------------------|------------------------|
--5--------5--------|--3----------------|------------------------|
--3--------5--------|--3----------------|------------------------|
-----------3--------|--1----------------|------------------------|

                                                                   
----8--10--12~---------|---------------------|-------------------||
-----------------------|---------------------|-------------------||
-----------------------|---------------------|-------------------||
-----------------------|--3------3----3------|--5----------------||
-----------------------|--3------3----3------|--5----------------||
-----------------------|--1------1----1------|--3----------------||


Kíséret (RIFF II.)
                                                                          
E||---------------------|--------------------------|---------------------|
B||---------------------|--------------------------|---------------------|
G||--2----5----4--------|--------------------------|--2----5----4--------|
D||--2----2----3--------|-----------------5-----7--|--2----2----3--------|
A||---------------------|--0--0--0--0--0--3--0--5--|---------------------|
E||---------------------|--------------------------|---------------------|

                           
-------------------------||
-------------------------||
-------------------------||
-------------------------||
--------------3h-2--3~---||
--1--1--1--1-------------||


RIFF III. ("A függöny értünk...")
                                                        
E||-------------------------|--------------------------|
B||-------------------------|--------------------------|
G||-------------------------|--------------------------|
D||--7----------------------|--------------------------|
A||--5----5--5--5--5--5--5--|--5--5--5--5--8--0--7--0--|
E||-------------------------|--------------------------|

                                                                            
-------------------------|------------------------|------------------------|
-------------------------|------------------------|------------------------|
-------------------------|------------------------|------------------------|
--7----------------------|--2---------------------|------------------------|
--5----5--5--5--5--5--5--|--3----3--3--3--3--3----|--2~---2--2--2--2--2----|
-------------------------|------------------------|------------------------|

                                                     
------------------------|--------------------------||
------------------------|--------------------------||
------------------------|--2----2----2----2--------||
-------------------3----|--2----2----2----2--------||
--1~---1--1--1--1--1----|--0----0----0----0--------||
------------------------|--------------------------||


Szóló bevezető (végig tapping)
                                                                             
E||-------------------------------------|-----------------------------------|
B||-------------------------------------|-----------------------------------|
G||-------------------------------------|-----------------------------------|
D||--0h3h5h0h3h7h5h7h10h7h0h3h7h0h3h5h7t|--0h3h5h0h3h7h5h10h7h0h3h7h0h3h5h7t|
A||-------------------------------------|-----------------------------------|
E||-------------------------------------|-----------------------------------|

                                                                      
-----------------------------------|---------------------------------|
-----------------------------------|---------------------------------|
-----------------------------------|---------------------------------|
--0h3h5h0h3h7h5h10h7h0h3h7h0h3h5h7t|--0h3h5h0h3h7h5h10h7h0h3h7h10~---|
-----------------------------------|---------------------------------|
-----------------------------------|---------------------------------|

                                                                        
-----------------------------------|-----------------------------------|
-----------------------------------|-----------------------------------|
-----------------------------------|-----------------------------------|
--0h3h5h0h3h7h5h10h7h0h3h7h0h3h5h7t|--0h3h5h0h3h7h5h10h7h0h3h7h0h3h5h7t|
-----------------------------------|-----------------------------------|
-----------------------------------|-----------------------------------|

                                                                        
-----------------------------------|-----------------------------------|
-----------------------------------|-----------------------------------|
-----------------------------------|-----------------------------------|
--0h3h5h0h3h7h5h10h7h0h3h7h0h3h5h7t|--0h3h5h0h3h7h5h10h7h0h3h7h0h3h5h7t|
-----------------------------------|-----------------------------------|
-----------------------------------|-----------------------------------|

Szóló
                                                                 
--------------------------|--10r--8-----------------------------|
-------8r--5-8h10--10~----|---------10h8------------------------|
--9-----------------------|--------------10h9h7/5h7h5---5h7h5---|
--7-----------------------|---------------------------7-------7-|
--------------------------|-------------------------------------|
--------------------------|-------------------------------------|

                                               
----------------------|--5----5---------------|
----------------------|--5----5---------------|
--5~--7---5--7b-------|----------9--------14--|
----------------------|----------7------------|
----------------------|-----------------------|
----------------------|-----------------------|

                                                   
--------------------------------------------------|
--------------------------------------------------|
--14h12-------16h12h14h12-------16h12h14h12-------|
--------14h12-------------14h12-------------14h12-|
--------------------------------------------------|
--------------------------------------------------|

                                                   
--------------------------------------------------|
--------------------------------------------------|
--17h12h14h12-------17h16h14h12----12h14h12-------|
--------------14h12-------------14----------14h12-|
--------------------------------------------------|
--------------------------------------------------|

                                                                              
--------------------------------------------------|--------------------------|
--------------15h12-------------15h12-------------|----------------------15--|
--14h12-------------14h12-------------14h12----12-|--12----12----------------|
--------14h12-------------14h12-------------14----|--12----12--14------------|
--------------------------------------------------|------------12------------|
--------------------------------------------------|--------------------------|

                                                         
----------------------12-------|------------------------|
--15b-----------15-12----15-12-|------------------------|
-------------------------------|--14b-------12----------|
-------------------------------|---------------14~------|
-------------------------------|------------------------|
-------------------------------|------------------------|

                                                         
--12--14--15--14h15h14----------------------------------|
--12-------------------17h15h17h14h15h14----------14h15h|
-----------------------------------------16h15h16-------|
--------------------------------------------------------|
--------------------------------------------------------|
--------------------------------------------------------|

                                                              
--------------------------------|--14b-----12----12--15--17--|
--14----------------------------|----------------------------|
-----16h15h16h15h12--12~--------|----------------------------|
--------------------------------|----------------------------|
--------------------------------|----------------------------|
--------------------------------|----------------------------|

                                                            
--19----22--17--17~-------|--------------------------------|
--------------------------|--8h7---------------------------|
--------------------------|------9h7-----9h7---------------|
--------------------------|----------9h7-----9h7-----------|
--------------------------|----------------------10h7/5~---|
--------------------------|--------------------------------|

                         
-----------------------||
-----------------------||
-----------------------||
-----------------------||
--2--0-----------------||
--------3h2-0~---------||


Refrén II. (a szóló után)
                                                        
E||-------------------------|--------------------------|
B||-------------------------|--------------------------|
G||-------------------------|--------------------------|
D||--5----------------------|--------------------------|
A||--3----3--3--3--3--3--3--|--3--3--3--3--3--3--3--3--|
E||-------------------------|--------------------------|

                                                                        
-------------------------|-------------------|-------------------------|
-------------------------|-------------------|-------------------------|
-------------------------|-------------------|-------------------------|
-------------------------|-------------------|--5----------------------|
--3--3--3--3--3--3--3----|--3----------------|--3----3--3--3--3--3--3--|
-------------------------|--1----------------|-------------------------|

                                                                          
--------------------------|-------------------------|-------------------||
--------------------------|-------------------------|-------------------||
--------------------------|-------------------------|-------------------||
--------------------------|-------------------------|-------------------||
--3--3--3--3--3--3--3--3--|--3--3--3--3--3--3--3----|--5----------------||
--------------------------|-------------------------|--3----------------||

Újra Együtt (Ossian) Gitártab és Akkordok

Télhercegnő (Ossian) Gitártab és Akkordok

Az Ossian ezen dala a tizenegyedik nagylemezén jelent meg, 2002-ben. Az album egyes dalszövegeit mozifilmek ihlették, ezért is találhatóak rajta filmzenei megoldások, és ezért hallhatók vonósok is rajta. Ezen az albumon szerepel először Erdélyi Krisztián basszusgitáros, akivel kialakult a csapat jelenlegi felállása. A Tél hercegnőjében is közreműködött Küronya Miklós basszusgitárral, illetve a vonós Veér Bertalan, Hegyaljai-Boross Zoltán és Négyesi Katalin. A zeneszám mintha egy mese-vagy filmbeli alakot idézne, a hófehér hajú, deret hozó tél hercegnőjét. De ez figura megszemélyesíthet egy létező nőt is: “Van különb száz/ Történhet bármi/ Nekem így marad meg ő/ Csodák között az első”.

Ossian: Télhercegnő

Kezdő dallam (distortion)
                                                                        
D||----------------10-----|--------------------|--10------------10-----|
A||--12----------------8--|--12----------------|--------------------8--|
F||-----------------------|--------------------|-----------------------|
C||-----------------------|--------------------|-----------------------|
G||-----------------------|--------------------|-----------------------|
D||-----------------------|--------------------|-----------------------|

                                                                 
-------------------|----------------10-----|--------------------|
-------------------|--12----------------8--|--12----------------|
--9----------------|-----------------------|--------------------|
-------------------|-----------------------|--------------------|
-------------------|-----------------------|--------------------|
-------------------|-----------------------|--------------------|

                                                                                
----------------10-----|--------------------|
--10----------------7--|--10----------------|
-----------------------|--------------------|
-----------------------|--------------------|
-----------------------|--------------------|
-----------------------|--------------------|



Kíséret (clean) - Gitár I.
                                                       
--------3----2----3------|--------2----3----2------|--------3----2----3------|
-------------------------|-----3-----3----3--------|-------------------------|
-----4-----4----4--------|-------------------------|-----4-----4----4--------|
-------------------------|-------------------------|-------------------------|
-------------------------|--2----------------------|-------------------------|
--3----------------------|-------------------------|--3----------------------|

                                                                              
--------3----2----3------|--------3----2----3------|--------2----3----2------|
-------------------------|-------------------------|-----3-----3----3--------|
-----4-----4----4--------|-----4-----4----4--------|-------------------------|
-------------------------|-------------------------|-------------------------|
-------------------------|-------------------------|--2----------------------|
--0----------------------|--3----------------------|-------------------------|

                                                                          
--------2----3----2------|---------------------|
-----3--3--3-3--3-3------|--2------2--2--------|
--2----------------------|--2------2--2--------|
-------------------------|---------------------|
-------------------------|---------------------|
-------------------------|---------------------|


Kíséret (clean) - Gitár II.
                                                                              
--------7----5----7------|--------5----7----5------|--------7----5----7------|
-----8-----8----8--------|-----7-----7----7--------|-----8-----8----8--------|
--7----------------------|--7----------------------|--7----------------------|
-------------------------|-------------------------|-------------------------|
-------------------------|-------------------------|-------------------------|
-------------------------|-------------------------|-------------------------|

                                                          
---------12-----10-----12------|--------7----5----7------|
-----12------12-----12---------|-----8-----8----8--------|
--9----------------------------|--7----------------------|
-------------------------------|-------------------------|
-------------------------------|-------------------------|
-------------------------------|-------------------------|

                                                           
--------5----7----5------|----------14-----15-----14------|
-----7-----7----7--------|------15------15-----15-15------|
--7----------------------|--14----------------------------|
-------------------------|--------------------------------|
-------------------------|--------------------------------|
-------------------------|--------------------------------|

                                                                             
--9-------9---9---------|
--10------10--10--------|
------------------------|
------------------------|
------------------------|
------------------------|


Szóló (clean)
                                                              
----------------------------|--------15h14h15/19-15-14~------|
--------------15-12~--------|----12--------------------------|
----12-14-16----------------|--------------------------------|
----------------------------|--------------------------------|
----------------------------|--------------------------------|
----------------------------|--------------------------------|

                                                          
----------------------------|--------15-14-12------------|
--------------15-12~--------|----12-----------15b--------|
----12-14-16----------------|----------------------------|
----------------------------|----------------------------|
----------------------------|----------------------------|
----------------------------|----------------------------|

                                                                       
--------15-14------14-12----12-10-------|-----------------------------|
----12---------12--------12----------10b|------10---------------------|
----------------------------------12----|---------12-9h7--------------|
----------------------------------------|----------------9-7-9~-------|
----------------------------------------|-----------------------------|
----------------------------------------|-----------------------------|

                                                                              
----------------12~----------|--15-15h14h12-14-14h12h10-12-12h10h9-10-10h9h7-|
-------10-11-12--------------|-----------------------------------------------|
--9-12-----------------------|-----------------------------------------------|
-----------------------------|-----------------------------------------------|
-----------------------------|-----------------------------------------------|
-----------------------------|-----------------------------------------------|


Szóló (distortion)
                                                        
--17b-----17-15-------------------|--------------------|
----------------17h19-15----17h19-|--------------------|
----------------------------------|--16~---------------|
----------------------------------|--------------------|
----------------------------------|--------------------|
----------------------------------|--------------------|

                                                          
--17b-----17-15-------------22/-|--17~-----19/-----------|
----------------17h19-15--------|--------------17~-------|
--------------------------------|------------------------|
--------------------------------|------------------------|
--------------------------------|------------------------|
--------------------------------|------------------------|

                                                         
--19-17-------------------15-14-------------------------|
--------17-------------17-------17-x--------14h15h14h12h|
--------------------14-------------x--------------------|
-----------21~---17----------------x--------------------|
-------------------------------------14~----------------|
--------------------------------------------------------|

                                                                     
--------------------------------|--15h17h15h14----------------------|
--14~-----12h14h12h10h12~-------|--------------15-------------------|
--------------------------------|-----------------16-14~------14/---|
--------------------------------|-----------------------------------|
--------------------------------|-----------------------------------|
--------------------------------|-----------------------------------|

                                                                           
-------------------------------------------------|------------------------|
--15h17h15h14-------17~-----------------14-15-16-|--17/-------------------|
--------------14---------------------14----------|------------------------|
-----------------14------------11-14-------------|------------------------|
----------------------------12-------------------|------------------------|
-------------------------12----------------------|------------------------|


Refrén (distortion) - Gitár I.
                                                      
D||---------------------------|----------------------|
A||---------------------------|----------------------|
F||---------------------------|----------------------|
C||---------------------------|--7------7--7------6--|
G||--7/-----------------------|--5------5--4------4--|
D||--7/--0-3-5-7----0--3-5-7--|----------------------|

                                                                               
---------------------------|----------------------|---------------------------|
---------------------------|----------------------|---------------------------|
---------------------------|----------------------|---------------------------|
---------------------------|--2------2--7----7----|---------------------------|
--9/--------9-----------9--|--0------0--4----5----|--7/-----------------------|
--7---2-5-7------2--5-7----|----------------------|--7/--0-3-5-7----0--3-5-7--|

                                                                          
----------------------|---------------------------|----------------------|
----------------------|---------------------------|----------------------|
----------------------|---------------------------|----------------------|
--7------7--7------6--|---------------------------|--2------2--7----7----|
--5------5--4------4--|--9/--------9-----------9--|--0------0--4----5----|
----------------------|--7---5-5-7------5--5-7----|----------------------|


Refrén (distortion) - Gitár II.
                                                      
D||---------------------------|----------------------|
A||---------------------------|----------------------|
F||---------------------------|----------------------|
C||---------------------------|--7------7--7------6--|
G||--7/-----------------------|--5------5--4------4--|
D||--7/--0-3-5-7----0--3-5-7--|----------------------|

                                                                               
---------------------------|----------------------|---------------------------|
---------------------------|----------------------|---------------------------|
---------------------------|----------------------|---------------------------|
---------------------------|--2------2--7----7----|---------------------------|
--9/--------5-----------5--|--0------0--4----5----|--7/-----------------------|
--7---2-5-7------2--5-7----|----------------------|--7/--0-3-5-7----0--3-5-7--|

                                                                          
----------------------|---------------------------|----------------------|
----------------------|---------------------------|----------------------|
----------------------|---------------------------|----------------------|
--7------7--7------6--|---------------------------|--2------2--7----7----|
--5------5--4------4--|--9/--------5-----------5--|--0------0--4----5----|
----------------------|--7---5-5-7------5--5-7----|----------------------|


Végjáték kíséret (distortion) - Gitár I.
                                                                     
------3-------3-------3-------3--|------2-------2-------2-------2---|
----3---3---3---3-------3---3----|----3---3---3---3---3---3---3---3-|
--4-------4-------4-4-----4------|--4-------4-------4-------4-------|
---------------------------------|----------------------------------|
---------------------------------|----------------------------------|
---------------------------------|----------------------------------|

                                                                     
------3-------3-------3-------3--|------3-------3-------3-------3---|
----3---3---3---3---3---3---3----|----3---5---5---5---5---5---5---5-|
--4-------4-------4-------4------|--4-------4-------4-------4-------|
---------------------------------|----------------------------------|
---------------------------------|----------------------------------|
---------------------------------|----------------------------------|

                                                                     
------3-------3-------3-------3--|------2-------2-------2-------2---|
----3---3---3---3-------3---3----|----3---3---3---3---3---3---3---3-|
--4-------4-------4-4-----4------|--4-------4-------4-------4-------|
---------------------------------|----------------------------------|
---------------------------------|----------------------------------|
---------------------------------|----------------------------------|

                                                                      
------2-------2-------2-------2---|--------0-------0-------0-------0-|
----3---3---3---3---3---3---3---3-|--2---2---2---2---2---2---2---2---|
--2-------2-------2-------2-------|----2-------2-------2-------2-----|
----------------------------------|----------------------------------|
----------------------------------|----------------------------------|
----------------------------------|----------------------------------|


Végjáték kíséret (distortion) - Gitár II.
                                                                      
------7-------7-------7-------7---|------5-------5-------5-------5---|
----8---8---8---8---8---8---8---8-|----7---7---7---7---7---7---7---7-|
--7-------7-------7-------7-------|--7-------7-------7-------7-------|
----------------------------------|----------------------------------|
----------------------------------|----------------------------------|
----------------------------------|----------------------------------|

                                   
------7-------7-------7-------7---|
----8---8---8---8---8---8---8---8-|
--7-------7-------7-------7-------|
----------------------------------|
----------------------------------|
----------------------------------|

                                                   
--------12----------12----------12----------12----|
-----12----12----12----12----12----12----12----12-|
--12----------12----------12----------12----------|
--------------------------------------------------|
--------------------------------------------------|
--------------------------------------------------|

                                                                      
------7-------7-------7-------7---|------5-------5-------5-------5---|
----8---8---8---8---8---8---8---8-|----7---7---7---7---7---7---7---7-|
--7-------7-------7-------7-------|--7-------7-------7-------7-------|
----------------------------------|----------------------------------|
----------------------------------|----------------------------------|
----------------------------------|----------------------------------|

                                                   
--------14----------14----------14----------14----|
-----15----15----15----15----15----15----15----15-|
--14----------14----------14----------14----------|
--------------------------------------------------|
--------------------------------------------------|
--------------------------------------------------|

                                                                               
-------9----10----9---------9---------9----|
----10---10----10---10---10---10---10---10-|
--9--------------------9---------9---------|
-------------------------------------------|
-------------------------------------------|
-------------------------------------------|

Télhercegnő (Ossian) Gitártab és Akkordok

Társ a bajban (Ossian) Gitártab és Akkordok

A Társ a bajban című Ossian-dal két verzióban is megjelent: a Hangerőmű című albumon, valamint a Best of 1998-2008 című lemezen, utóbbin akusztikus verzióban. A dalszövege nagyon jól összefoglalja a szerelem lényegét: “Nem kell az eskü, a gyűrű kevés/ Ez véreddel írt szerződés”. Vagyis nem csak papíron kell valakinek a társának lennünk, hanem szívvel-lélekkel, nem csak szavakkal, hanem tettekkel is. Az eredeti felvétel producere Paksi, Küronya, Rubcsics és Wéber volt, az akusztikusé pedig az egész zenekar. Az első verziója 2003-ban, a második 2009-ben jelent meg.

Ossian: Társ a bajban

         G                    C
Óvnád-e másoktól, önmagától?
G              C
Elűznéd rossz álmait?
G                     C
Bármeddig megvárnád, elfogadnád
G                C
Önzését, rossz napjait?

Am                        Em
Nem kell az eskü, a gyűrű kevés
Am			G
Ez véreddel írt szerződés

Refr.: 
Em         D
Társad a bajban
C           G
Rosszban és jóban

Magányodban, mélypontokban
Napfényben, sárban
Örömben, gyászban
Szép napokban, vesztes harcban

Pokolra elmennél, kiegyeznél
Istennel és Ördöggel
Végsőkig védenéd, összes bűnét
Szerelmed oldozná fel

Nem kell az eskü, a gyűrű kevés
Ez véreddel írt szerződés

Refr. (2x)

Társad a bajban! (2x) 

Társ a bajban (Ossian) Gitártab és Akkordok

Nincs válasz (Ossian) Gitártab és Akkordok

Az Ossian negyedik nagylemeze, amelyen ez a felvétel hallható, az együttes eddigi legsikeresebb darabjának számít. Közel négy hónapig szerepelt a Mahasz eladási listáján, 1991 júniusában az első helyet is megszerezte. Az Ossian Paksi-Maróthy-korszakának zeneileg legkeményebb albuma az említett Ítéletnap. A lemezen a heavy metal mellett thrash metalt is hallhatunk. A Nincs Válasz című dal üzenete az, hogy ha összegyűlnek a fejünk felett a felhők, kapcsoljunk ki, például a zene segítségével. A dalt tartalmazó eredeti lemezt 2003-ban újra kiadták, a kazetta és hanglemez után CD-n, bónusz videoklippel.

Ossian: Nincs válasz

Intro
                                                                 
E||---------------------------------|---------------------------|
B||---------------------------------|---------------------------|
G||---------------------------------|---------------------------|
D||----------4----------------------|----------4----------------|
A||---------------5-----------------|-----------------5----4~---|
E||--2-2-2-2----2-----2-2-2-2-2-2-2-|--2-2-2-2----2-2-----------|

                                                          
---------------------------------|-----------------------|
---------------------------------|-----------------------|
---------------------------------|-----------------4/--0-|
----------4----------------------|--4----2----4----4/--0-|
---------------5-----------------|--2----0----2----------|
--2-2-2-2----2-----2-2-2-2-2-2-2-|-----------------------|

                                                              
---------------------------------|---------------------------|
---------------------------------|---------------------------|
---------------------------------|---------------------------|
----------4----------------------|----------4----------------|
---------------5-----------------|-----------------5----4~---|
--2-2-2-2----2-----2-2-2-2-2-2-2-|--2-2-2-2----2-2-----------|

                                                              
---------------------------------|--------------------------||
---------------------------------|--------------------------||
---------------------------------|--------------------------||
----------4----------------------|--9-9-9-9---9-9-9-9-------||
---------------5-----------------|--7-7-7-7---7-7-7-7-------||
--2-2-2-2----2-----2-2-2-2-2-2-2-|--------------------------||



RIFF I. (kíséret)

E||---------------------------------|---------------------------|
B||---------------------------------|---------------------------|
G||---------------------------------|---------------------------|
D||----------4----------------------|----------4----------------|
A||---------------5-----------------|-----------------5----4~---|
E||--2-2-2-2----2-----2-2-2-2-2-2-2-|--2-2-2-2----2-2-----------|


---------------------------------|-------------------------------|
---------------------------------|-------------------------------|
---------------------------------|-------------------------------|
----------4----------------------|--4-4-4-4-4--4-4-4-4-4--4-4-4--|
---------------5-----------------|--2-2-2-2-2--2-2-2-2-2--2-2-2--|
--2-2-2-2----2-----2-2-2-2-2-2-2-|-------------------------------|


---------------------------------|---------------------------|
---------------------------------|---------------------------|
---------------------------------|---------------------------|
----------4----------------------|----------4----------------|
---------------5-----------------|-----------------5----4~---|
--2-2-2-2----2-----2-2-2-2-2-2-2-|--2-2-2-2----2-2-----------|


---------------------------------|-------------------------------||
---------------------------------|-------------------------------||
---------------------------------|-------------------------------||
----------4----------------------|----------2----------2------2--||
---------------5-----------------|--2-2-2-2-2--2-2-2-2-2--2-2-2--||
--2-2-2-2----2-----2-2-2-2-2-2-2-|--0-0-0-0----0-0-0-0----0-0----||



Refrén
                                                             
E||----------------------------|----------------------------|
B||----------------------------|----------------------------|
G||----------------------------|--1--------2-2--2-----------|
D||--4--------5-5--5-----------|--2--------2-2--2-----------|
A||--2--2-2-2-2-2--2--2--2--2--|--2--2-2-2-2-------2--2--2--|
E||----------------------------|----------------------------|

                                                 (2x)
-------------------------------|--------------------||
-------------------------------|--------------------||
-------------4----------4------|--2-----------------||
--4----------2----------2------|--2--------4--------||
--2--2-2-2-2-2--2-2-2-2-2--2-2-|--0--------2--------||
-------------------------------|-----------2--------||



Szóló
                                                                  
E||-------------------|------------------------------------------|
B||-------------------|----5h0-----------------------------------|
G||----4b-------------|--------4h0h4h2h0h4h2h0-------------------|
D||-------------------|------------------------4h2h0-------------|
A||-------------------|------------------------------4h2h0-------|
E||-------------------|------------------------------------3h2h0-|


--------------------|--------------------------|------------------------------|
--------------------|--3----3----3-------------|--17------------17------------|
--------------------|--2----2----2----2--------|------16~---14------16----14--|
--------------------|-----------------2--------|------------------------------|
--------------------|--------------------------|------------------------------|
--0--2--------------|--------------------------|------------------------------|

                                                                         
-------------------------------|----------------------------------------|
-------------------------------|----------------------------------------|
--16----16----16----14/-----9--|----------------------------------------|
-------------------------------|------------------------11~-------11-12-|
-------------------------------|------9h11h12h11h9----x-----------------|
-------------------------------|--12---------------12-------------------|


-----------------------------------------------------------|
----------------------10h12-14~---15--14h12h14h12h10h12h14h|
--9h11h13h11h10h11h13--------------------------------------|
-----------------------------------------------------------|
-----------------------------------------------------------|
-----------------------------------------------------------|


------------------------------------------------------|----------------------|
--15h14h12h10h12--------------------------------------|----------------------|
-----------------13h11h13h11h9h11h9-------9-----------|----------------------|
------------------------------------12h11---11--------|----------------------|
-----------------------------------------------12~----|--11b-----------------|
------------------------------------------------------|----------12~---------|

                                                                          
-------------------------------------|-----------------------------------|
-------------------------------------|-----------------15b-------15~-----|
-------------------------------------|--------14h16h14-------------------|
---------------------------------14--|--16h18----------------------------|
------------12h14h12---17~-----------|-----------------------------------|
--12h14h16---------------------------|-----------------------------------|

                                                                        
-----------------------------------------------------------------------|
-----------------------------------------------------------------------|
--------------------------------------------------------------11-11-11-|
-----------------------------------11-11-11-14-14-14-14-14-14----------|
--9-9-9-11-11-11-11-11-11-12-12-12-------------------------------------|
-----------------------------------------------------------------------|

                                                 
--------------------------------------16b-------|
-----------14-14-14-14-14-14-15-15-15-----------|
--14-14-14--------------------------------------|
------------------------------------------------|
------------------------------------------------|
------------------------------------------------|

(kíséret/gitár 2. indul)                                        
--14h12h9----14h12h9----9h12h14h12h9----14h12h9----9h12h14h12h9h12-|
----------12---------12--------------12---------12-----------------|
-------------------------------------------------------------------|
-------------------------------------------------------------------|
-------------------------------------------------------------------|
-------------------------------------------------------------------|

                                                                    
--------------12h9--------------------------|----------------------|
--12h10----10------12-10-12b--10------------|----------------------|
--------11-----------------------11h9-------|----------------------|
--------------------------------------11----|--9~---------7----9h7-|
-----------------------------------------12-|----------------------|
--------------------------------------------|----------------------|

                                                               
----------------------|--9h10h9-------------------------------|
----------------------|---------12-10-9---9-9h10h9------------|
----------------------|----------------------------11-9-------|
--9b-----9h7h6~-------|---------------------------------12----|
----------------------|---------------------------------------|
----------------------|---------------------------------------|

                                          
-----------------------------------------|
--9h10h9---------------------------------|
---------11-9----------------------------|
--------------12-11-9--------------------|
----------------------12-11-9------------|
------------------------------12-9-10~---|

                                                                             
----------------------------------------|-----------------------------------|
----------------------------------------|---------------------------7~------|
----11----11----11h--9------11h--9------|--11h--9---------------------------|
-----------------------11h9--------11h9-|---------11h9/7--------------------|
----------------------------------------|----------------9h-7---------------|
----------------------------------------|---------------------9h7/5---------|


Szóló II. - gitár 1.
                                                                           
--------------------------|----------------------|------------------------|
--------------------------|----------------------|------------------------|
--7--7-7-7-7--------------|----------------------|--4--4-4-4-3-4~---------|
-------------4~-----------|----------------------|------------------------|
----------------------7-5-|--7--5--7-------------|------------------------|
--------------------------|-------------5~-------|------------------------|

                                                                             
--------------------------|--------------------------|----------------------|
--------------------------|--------------------------|----------------------|
--3--------4--------6-----|--7--7-7-7-7--------------|----------------------|
-----4--4-----4--4-----4--|-------------4~-----------|----------------------|
--------------------------|----------------------7-5-|--7--5--7-------------|
--------------------------|--------------------------|-------------5~-------|

                                                                               
------------------------|--------------------------|--------------------------|
------------------------|--------------------------|--------------------------|
--4--4-3-4-3-4~---------|--3--------4--------6-----|--7--7-7-7-7--------------|
------------------------|-----4--4-----4--4-----4--|-------------4~-----------|
------------------------|--------------------------|----------------------7-5-|
------------------------|--------------------------|--------------------------|

                                                                           
----------------------|------------------------|--------------------------|
----------------------|------------------------|--------------------------|
----------------------|--4--4-4-4-3-4~---------|--3--------4--------6-----|
----------------------|------------------------|-----4--4-----4--4-----4--|
--7--5--7-------------|------------------------|--------------------------|
-------------5~-------|------------------------|--------------------------|

                                                                           
--------------------------|----------------------|------------------------|
--------------------------|----------------------|------------------------|
--7--7-7-7-7--------------|----------------------|--4--4-3-4-3-4~---------|
-------------4~-----------|----------------------|------------------------|
----------------------7-5-|--7--5--7-------------|------------------------|
--------------------------|-------------5~-------|------------------------|

                                                       
--------------------------|--------------------------||
--------------------------|--------------------------||
--3--------4--------6-----|--3--------4--------6-----||
-----4--4-----4--4-----4--|-----4--4-----4--4-----4--||
--------------------------|--------------------------||
--------------------------|--------------------------||


Szóló II. - gitár 2.
                                                                              
E||--------------------------|----------------------|------------------------|
B||--7--7-7-7-7--------------|----------------------|------------------------|
G||-------------7~-------9-7-|--9--7--9-------------|--7--7-7-7-6-7~---------|
D||--------------------------|-------------7~-------|------------------------|
A||--------------------------|----------------------|------------------------|
E||--------------------------|----------------------|------------------------|

                                                                             
--------------------------|--------------------------|----------------------|
--------------------------|--7--7-7-7-7--------------|----------------------|
--6--------7--------9-----|-------------7~-------9-7-|--9--7--9-------------|
-----8--8-----8--8-----8--|--------------------------|-------------7~-------|
--------------------------|--------------------------|----------------------|
--------------------------|--------------------------|----------------------|

                                                                                
------------------------|--------------------------|--------------------------||
------------------------|--------------------------|--------------------------||
--7--7-7-7-6-7~---------|--6--------7--------9-----|--6--------7--------9-----||
------------------------|-----8--8-----8--8-----8--|-----8--8-----8--8-----8--||
------------------------|--------------------------|--------------------------||
------------------------|--------------------------|--------------------------||


Szóló alatti kíséret (a szóló második részétől)
                                                        
E||--------------------------|-------------------------|
B||--------------------------|-------------------------|
G||--------------------------|-------------------------|
D||--------------------------|-------------------------|
A||--------------------------|-------------------------|
E||--0--2--2--0--2--2--0--2--|--0--2--2--0--2--2--0----|

                                                                               
--------------------------|------------------------|--------------------------|
--------------------------|------------------------|--------------------------|
--------------------------|------------------------|--------------------------|
--------------------------|------------------------|--------------------------|
--------------------------|------------------------|--------------------------|
--0--2--2--0--2--2--0--2--|--0--2--2--0--5----4----|--0--2--2--0--2--2--0--2--|

                                                                              
-------------------------|--------------------------|------------------------|
-------------------------|--------------------------|------------------------|
-------------------------|--------------------------|------------------------|
-------------------------|--------------------------|------------------------|
-------------------------|--------------------------|------------------------|
--0--2--2--0--2--2--0----|--0--2--2--0--2--2--0--2--|--0--2--2--0--5----4----|


Szóló II. kíséret - gitár 2.

--------------------------|-------------------------|--------------------------|
--------------------------|-------------------------|--------------------------|
--------------------------|-------------------------|--------------------------|
--------------------------|-------------------------|--------------------------|
--2--2--2--2--2--2--2--2--|-------------0--0--0--0--|--------------------------|
--------------------------|--0--0--0----------------|--3--3--3--3--3--3--3--3--|

                                                                               
-------------------------|--------------------------|-------------------------|
-------------------------|--------------------------|-------------------------|
-------------------------|--------------------------|-------------------------|
-------------------------|--------------------------|-------------------------|
-------------------------|--2--2--2--2--2--2--2--2--|-------------0--0--0--0--|
--2--2--2--2--2--2--2----|--------------------------|--0--0--0----------------|

                                                                                
--------------------------|-------------------------|
--------------------------|-------------------------|
--------------------------|-------------------------|
--------------------------|-------------------------|
--------------------------|-------------------------|
--3--3--3--3--3--3--3--3--|--2--2--2--2--2--2--2----|



Befejezés
                                                                               
E||------------------------|-------------------------|------------------------|
B||------------------------|-------------------------|------------------------|
G||------------------------|-------------------------|------------------------|
D||------------------------|-------------------------|------------------------|
A||--4~------5~------------|--4--4-----3~------------|--4~------5~------------|
E||-------2-------2--2--2--|--------2-------2--2--2--|-------2-------2--2--2--|

                                                                           
-----------------------|------------------------|-------------------------|
-----------------------|------------------------|-------------------------|
-----------------------|------------------------|-------------------------|
-----------------------|------------------------|-------------------------|
--4--4--3--2------2----|--4~------5~------------|--4--4-----3~------------|
--2--2--1--0------0----|-------2-------2--2--2--|--------2-------2--2--2--|

                                                                        
------------------------|-----------------------|---------------------||
------------------------|-----------------------|---------------------||
------------------------|-----------------------|---------------------||
------------------------|-----------------------|---------------------||
--4~------5~------------|--4--4--3--2------2----|--4----4--4----------||
-------2-------2--2--2--|--2--2--1--0------0----|--2----2--2----------||

Nincs válasz (Ossian) Gitártab és Akkordok

Másnapos dal (Ossian) Gitártab és Akkordok

A Másnapos dal egy könnyen érthető szövegű dal, amellyel könnyű azonosulnia annak, aki volt már hasonló helyzetben. Az Ossian zenekar nyolcadik nagylemezére felkerült dal az első korongok heavy metal hangzását idézi, a többi felvétellel együtt. Az együttes feloszlását megelőző utolsó stúdióalbumokra inkább a hard rock  stílus volt jellemző. A Fémzene című albumot a Hammer Records adta ki, Paksi Endre, Rubcsics Richárd és Cserfalvi “Töfi” Zoltán produceri munkáját követően. Érdekesség, hogy a gitáros “Töfi” stúdiójában készítették a lemezt Szolnokon. A Másnapos dal a lemezen az utolsó darab, talán azért, mert egy jó Ossian-koncert után sok rajongó került már ilyen állapotba.

Ossian – Másnapos dal

          Em    022000
G     320003
D     x00232
Dsus2 x00230
Dsus4 x00233

A többi versszak is ugyan így

EmFelpörgött Géjjel után Dsápadt hajnalon [Dsus4/Dsus2]
EmSzáz üveg, Gezer pohár Dminden asztalCon
EmTegnapi Gharsány mámor Dhalvány füstje száll[Dsus4/Dsus2]
EmSzáraz a Gtorkom, fejem Dszétrobbanna [E8-A10-D10-G9-H8]már[E0-E3]

EmNem akarok [Dsus2]semmit Dhidd el Chát
A napfény szinDte Gfáj, [Dsus2]jó a DfélhoCmály
Aludni kéDne Gmár
Nem akarom [Dsus2]hallani Dezt a Czajt, a belső zűrzaDvart,
GA [Dsus2]másDnapos Cdalt, mégis fogva Emtart

Megfáradt hangulatban furcsa érzések
Valóság, képzelet, játszik csak veled
Lelassult minden mondat minden mozdulat
Homályos filmszalag az összes gondolat

Nem akarok semmit hidd el hát,
A napfény szinte fáj, jó a félhomály
Aludni kéne már
Nem akarom hallani ezt a zajt, a belső zűrzavart,
A másnapos dalt, mégis fogva tart

Nem akarok semmit hidd el hát,
A napfény szinte fáj, jó a félhomály
Aludni kéne már
Nem akarom hallani ezt a zajt, belső zűrzavart,
A másnapos dalt, mégis fogva tart


Másnapos dal (Ossian) Gitártab és Akkordok

Ki Véd Meg? (Ossian) Gitártab és Akkordok

A Ki véd meg? Avagy a Kelet-európai rocksztár ballada a maga 4 perc 11 másodperces hosszúságával az Ossian együttes leghosszabb dalai közé tartozik. A zenekar hatodik nagylemezén hallható, amely az Emberi dolgok címet kapta. Ha megnézzük a dalok listáját, a címek valóban a mindennapi életünkre utalnak, néhányat említve: Újra együtt, Átverés, Betelt a pohár. Az 1993-as korong folytatja a Kitörés album irányvonalát. Erős dallamok, gazdag vokálok jutottak itt is fontos szerephez. Paksi Endre mellett, aki több Ossian-album producere volt már, egy másik tag, Maróthy Zoltán vállalta ezt a szerepet.

Ossian: Ki Véd Meg?

Intro
                                                                            
E||-------------------|-------------------------|--------------------------|
B||-------------------|-------2-----2--------2--|-----2--------2-----------|
G||-------------------|----------4-----4--------|--4-----4--------4--------|
D||-------------------|-------------------4-----|-----------4--------4-----|
A||----------------0--|--2----------------------|-----------------------0--|
E||-------------------|-------------------------|--------------------------|

-------------------------|--------------------------||
-------2-----2--------2--|-----2--------2-----------||
----------4-----4--------|--4-----4--------4--------||
-------------------4-----|-----------4--------4-----||
--2----------------------|-----------------------0--||
-------------------------|--------------------------||


Kíséret (clean)
                                                        
E||-------------------------|--------------------------|
B||-------2-----2--------2--|-----2--------2-----------|
G||----------4-----4--------|--4-----4--------4--------|
D||-------------------4-----|-----------4--------4-----|
A||--2----------------------|-----------------------0--|
E||-------------------------|--------------------------|

                                                                              
-------------------------|--------------2----------|-------------------------|
-------2-----2--------2--|-----2------------2------|-------------2--------3--|
----------4-----4--------|--4-----4-------------4--|----------4-----4--------|
-------------------4-----|-----------4-------------|--5----5-----------5-----|
--2----------------------|-------------------------|-------------------------|
-------------------------|-------------------------|-------------------------|

                                                      
--------0-----------------|-----------------------0--|
-----------3--------2--0--|--------0-----0-----------|
--4-----------4-----------|-----3-----3-----3--------|
-----5-----------5--------|--4-----------------4-----|
--------------------------|--------------------------|
--------------------------|--------------------------|

                      (2x)
--------------------------||
--0-----------0-----------||
-----3-----3-----3--------||
--------4-----------4-----||
-----------------------0--||
--------------------------||


Átkötő a második refrén után (distortion)
                                                           
E||------------------------|------------------------------|
B||------------------------|-------------2----------2--3--|
G||------------------------|----------------4-4-4-4-4-----|
D||--4-4-4-4-4/---x--------|--4--4-4-4-4------------------|
A||--2-2-2-2-2/---x--------|--2--2-2-2--------------------|
E||------------------------|------------------------------|

                                                 
-----------------------|-----------------------||
-----------------------|------------2br--------||
-----------------------|-----------------------||
--4-4-4-4-4------------|--4--4-4-4-------------||
--2-2-2-2-2------------|--2--2-2-2-------------||
-----------------------|-----------------------||


Kíséret (a második refrén után) (distortion)
                                                         
E||-----------------------|-----------------------------|
B||-----------------------|------------2----------2--3--|
G||-----------------------|---------------4-4-4-4-4-----|
D||--4-4-4-4-4------------|--4--4-4-4-------------------|
A||--2-2-2-2-2------------|--2--2-2-2-------------------|
E||-----------------------|-----------------------------|

                                                                          
-----------------------|------------2------------|-----------------------|
-----------------------|-----------------2-------|-----------------------|
-----------------------|----------------------2--|-----------------------|
--4-4-4-4-4------------|--4--4-4-4---------------|-----------------------|
--2-2-2-2-2------------|--2--2-2-2---------------|--7-5-5-5-5------------|
-----------------------|-------------------------|--5-3-3-3-3------------|

                                                       
------------------------------|-----------------------|
------------------------------|-----------------------|
------------------------------|-----------------------|
------------------------------|-----------------------|
--7-5-5-5-5--7-5-5-5-5--5--7--|--4-4-4-4-4------------|
--5-3-3-3-3--5-3-3-3-3--3--5--|--2-2-2-2-2------------|

                                  
--------------------------------||
--------------------------------||
--------------------------------||
--------------------------------||
--4-4-4-4-4-4-4--4-4-4-4-4--4-4-||
--2-2-2-2-2-2-2--2-2-2-2-2--2-2-||


Kíséret 2. (a második refrén után) (distortion)
                                                              
E||----------------------------|-----------------------------|
B||----------------------------|------------2----------2--3--|
G||----------------------------|---------------4-4-4-4-4-----|
D||--4-4-4-4-4--4--4--4--4--4--|--4--4-4-4-------------------|
A||--2-2-2-2-2--2--2--2--2--2--|--2--2-2-2-------------------|
E||----------------------------|-----------------------------|

                                                       
----------------------------|------------2------------|
----------------------------|-----------------2-------|
----------------------------|----------------------2--|
--4-4-4-4-4--4--4--4--4--4--|--4--4-4-4---------------|
--2-2-2-2-2--2--2--2--2--2--|--2--2-2-2---------------|
----------------------------|-------------------------|

                                                           
----------------------------|-----------------------------|
----------------------------|-----------------------------|
----------------------------|-----------------------------|
----------------------------|-----------------------------|
--5-5-5-5-5--5--5--5--5--5--|--5--5-5-5-5-5--5-5-5-5-5----|
--3-3-3-3-3--3--3--3--3--3--|--3--3-3-3-3-3--3-3-3-3-3----|

                                                           
----------------------------|----------------------------||
----------------------------|----------------------------||
----------------------------|----------------------------||
----------------------------|----------------------------||
--4-4-4-4-4--4--4--4--4--4--|--4--4-4-4-4-4---4-4-4-4----||
--2-2-2-2-2--2--2--2--2--2--|--2--2-2-2-2-2---2-2-2-2----||


Refrén (2x, 4x)
                                                                       
E||--------------------|-----------------------|----------------------|
B||--------------------|-----------------------|----------------------|
G||--------------------|-----------------------|--2--------2--2--2----|
D||--------------------|-----------------------|--2--------2--2--2----|
A||--7--------5--------|--4~-----3----2--0-----|--0--------0--0--0----|
E||--------------------|--------------------3--|----------------------|

                          
------------------------||
------------------------||
------------------------||
--5---------------------||
--5---------------------||
--3------3--3--0--2--3--||


Szóló
                                                                          
E||--------------------|------------------------------|------------------|
B||--------------------|------------15--14------------|------------------|
G||--------------------|----14--16----------14---14---|------------------|
D||--16~---------------|------------------------------|------------------|
A||--------------------|------------------------------|------------------|
E||--------------------|------------------------------|------------------|

                                                                  
------------------------|--10--9---------------10----9-----------|
--12h-------------------|---------10--7-----------------10--7----|
-----11----11~----------|----------------9--7--------------------|
------------------------|----------------------------------------|
------------------------|----------------------------------------|
------------------------|----------------------------------------|

                                
--10--9------------------------|
---------10--7-----------------|
----------------9--7--6~-------|
-------------------------------|
-------------------------------|
-------------------------------|

                                                 
------------------------------------------------|
----------------8h9h10h9h8h7h8h9h10h9h8---------|
-----------9-11-------------------------11h9----|
---9-11-12-----------------------------------12h|
------------------------------------------------|
------------------------------------------------|

                                                                                
-------------------------------|----------------------|------------------------|
-------------------------------|----------------------|------------------------|
-------------------------------|----------------------|------------------------|
--11h12h14h12h11h9-8~----------|--9~-----7----7--9----|----2----4--4--7--7--9--|
-------------------------------|----------------------|------------------------|
-------------------------------|----------------------|------------------------|

                                                                                
----------------------------|-----------------------------|--------------------|
----------------------------|-----------------------------|--------------------|
------------7-7-----9-9-----|--7-7-----9-9-----11----7----|--9b---------9b-----|
--9------9------9-9-----9-9-|------9-9-----9-9------------|--------------------|
----------------------------|-----------------------------|--------------------|
----------------------------|-----------------------------|--------------------|

                                                                         
---------------------|-------------------------|------------------------|
---------------------|-------------------------|------------------------|
------9~---------11--|--11---9---7--11--9------|--11--9----11--9/-------|
---------------------|-------------------------|------------------------|
---------------------|-------------------------|------------------------|
---------------------|-------------------------|------------------------|

                                
----------12h14h17h19t---------|
--15-----------------------15--|
-------------------------------|
-------------------------------|
-------------------------------|
-------------------------------|

                                                    
---------21h17h19h21t-----17h15h17h19h17h15h14h21t-|
---17h19h------------------------------------------|
---------------------------------------------------|
---------------------------------------------------|
---------------------------------------------------|
---------------------------------------------------|

                                                                        
--17h19h21h19h17h15h17h15----------21h19h17h15h14h17h14-------21h19h17h|
--------------------------19h17h15----------------------17h15----------|
-----------------------------------------------------------------------|
-----------------------------------------------------------------------|
-----------------------------------------------------------------------|
-----------------------------------------------------------------------|

                                                       
--15h14h17h14----------14h17h14-----------------------|
--------------17h15h17t---------17h15h17h-14h17h12h17h|
------------------------------------------------------|
------------------------------------------------------|
------------------------------------------------------|
------------------------------------------------------|

                                                    
--------------------------|------------------------|
--10h12---------14----15--|--14b-----12--12~-------|
--------------------------|------------------------|
--------------------------|------------------------|
--------------------------|------------------------|
--------------------------|------------------------|

                                                       
--------------10--14--12--10h9h10h9-----------10--14--|
--12--11--12------------------------12h11h12----------|
------------------------------------------------------|
------------------------------------------------------|
------------------------------------------------------|
------------------------------------------------------|

                                                                     
--12--10h9h10h9--------------------10----|--10~-----9/--x----10-----|
----------------12h11h12h15h12~----------|----------------7------7--|
-----------------------------------7-----|--7~----------------------|
-----------------------------------------|--------------------------|
-----------------------------------------|--------------------------|
-----------------------------------------|--------------------------|

                                                                             
--9-----7-----9---10---12--|--14------14/---19--21--21~-|--------------0----|
-----7-----7---------------|----------------------------|-------------------|
---------------------------|----------------------------|-------------------|
---------------------------|----------------------------|-------------------|
---------------------------|----------------------------|-------------------|
---------------------------|----------------------------|-------------------|

                                                                           
--15-17-19-17-15-14-15-17-14-15-17-19-17-15-14-15-17-15-17-19-15----------|
-----------------------------------------------------------------17-19-20-|
--------------------------------------------------------------------------|
--------------------------------------------------------------------------|
--------------------------------------------------------------------------|
--------------------------------------------------------------------------|

                                                                           
--17----------------------------------14-15-14----------------------------|
-----19-17-19-20-19-17-19-17-15----------------17-15-12-14-15-14-12-------|
--------------------------------16-18-------------------------------14-11-|
--------------------------------------------------------------------------|
--------------------------------------------------------------------------|
--------------------------------------------------------------------------|

                                                                       
----------------------------------------------------------------------|
----------------------------------------------------------------------|
--12-14-12-11-------------11-12-14-12-11------------------------------|
--------------14-11-12-14----------------14-12-11---------9-11-9-9-11-|
--------------------------------------------------9-10-12-------------|
----------------------------------------------------------------------|

                                                           
-------------------------------------|--------------------|
-------------------------------------|--------------------|
-----9---------------11---12---14----|--16~---------------|
--12---11-9----9-11------------------|--------------------|
------------12-----------------------|--------------------|
-------------------------------------|--------------------|

                                                                               
--------------------------------|------------------------|-------------------||
--15h-----14h---12--------------|------------------------|-------------------||
----------------------14----11--|----------------11/-----|--4----------------||
--------------------------------|------------------------|-------------------||
--------------------------------|----12----14------------|-------------------||
--------------------------------|------------------------|-------------------||

Ki Véd Meg? (Ossian) Gitártab és Akkordok

Hazatérés (Ossian) Gitártab és Akkordok

Az Ossian megalakulásának 20. évfrodulója alkalmából megjelentetett egy átdolgozásokat tartalmazó albumot. Ez 2006. szeptember 11-én jelent meg, akusztikus stílusban, nagyzenekar segítségével szólaltatja meg rajta a zenekar dalait. Együtt jelent meg a Létünk a bizonyíték című koncertalbummal. Tíz újragondolt és hét eredetiben hallható felvétel mellett találunk a lemezen azonban egy új balladát, a Hazatérést is. A dalszöveggel talán mindenki tud azonosulni: “Mélyből a csúcsra oly nehéz…Csúcsról a mélybe egy pillanat”. Egy másik gondolat is gyakran elhangozhat sok ember szájából: “Engedd meg nekem, a saját életem úgy irányítsam és az tegyem, Mit vérem diktál majd”.

Ossian – Hazatérés

Intro:C-Em-Am-G x2

Verse:
C     EmAm   G
Összerakjuk létünk apró darabjait,
C   Em     Am      G
Néha összeáll, de van, ki válaszra vár!

Bridge:
F	  Am	      C            Am
Mélybol a csúcsra oly nehéz, tán egy élet is kevés még..
F	   Am	       C	         Am            G
Csúcsról a mélybe egy pillanat, csak egy rossz mozdulat elég..

REF
C	   Em		  Am		    G		   C
Engedd meg nekem, a saját életem úgy irányítsam és azt tegyem,
C		 Em		   Am		    G	          C
mit vérem diktál majd és akármerre hajt, mindig érezzem a belso dalt!

Intro:C-Em-Am-G x2

C     EmAm        G
Résen lenni, felelni-megfelelni,
C     EmAm       G
talán néha jó volna megpihenni,
F	  Am	      C            Am
Mélybol a csúcsra oly nehéz, tán egy élet is kevés még..
F	   Am	       C	         Am            G
Csúcsról a mélybe egy pillanat, csak egy rossz mozdulat elég..

REF
C	   Em		  Am		    G		   C
Engedd meg nekem, a saját életem úgy irányítsam és azt tegyem,
C		 Em		   Am		    G	          C
mit vérem diktál majd és akármerre hajt, mindig érezzem a belso dalt!
C         Em         Am             G             C   
A világ peremén felépítem én a saját világom, ami csak enyém,
C              Em                Am               G
s a tied lesz ez majd, tart, ameddig tart, a vándor hazatér,
              C
s a hosszú út véget ér!

Solo:C-Em-Am-G

REF
C	   Em		  Am		    G		   C
Engedd meg nekem, a saját életem úgy irányítsam és azt tegyem,
C		 Em		   Am		    G	          C
mit vérem diktál majd és akármerre hajt, mindig érezzem a belso dalt!  (Modulál 1 hangot felfele)
D        [Fm#]         Bm             A             D
A világ peremén felépítem én a saját világom, ami csak enyém,
D             [Fm#]                Bm                A
s a tied lesz ez majd, tart, ameddig tart, a vándor hazatér,
              D
s a hosszú út véget ér.

Hazatérés (Ossian) Gitártab és Akkordok

Haragban a világgal (Ossian) Gitártab és Akkordok

Az Ossian 1998-as Koncert című albumán jelent meg ez a felvétel. Az első koncertlemezüket egy feloszlást követő fellépés hanganyagaiból állították össze. A feloszlás után négy évvel, az énekes Paksi Endre az E-klubban adott koncertet zenész barátaival, az Ossian legjobb dalaiból. A közönség lelkesen fogadta a műsort és a lemezt, így Paksi újjászervezte az Ossiant. A heavy metal-korong felvételei a koncert helyszínén készültek, az utómunkálatokat a Denevér stúdió végezte. Az addigi legsikeresebb felvételek gyűjteményének producere Paksi Endre mellett Cserfalvi “Töfi” Zoltán, a zenekar egyik gitárosa volt. A Hammer Record nevéhez fűződik a kiadás.

Ossian – Haragban a világgal

Nyitó RIFF
   
    5/4                                  4/4
E||------------------------------------|------------------------|
B||------------------------------------|------------------------|
G||------------------------------------|------------------------|
D||------------------------------------|--5----------------5~---|
A||--2-2-2-2-2--4-4-4-4-4--5-5---5-5---|--3------3-5-3--2--3~---|
E||--0-0-0-0-0--2-2-2-2-2--2-2---3-3---|------------------------|

                            5/4
--------------------------|------------------------------------|
--------------------------|------------------------------------|
--------------------------|------------------------------------|
--------------------------|------------------------------------|
----3-5-3--2--3--2--------|--2-2-2-2-2--4-4-4-4-4--5-5---5-5---|
--------------------3--2--|--0-0-0-0-0--2-2-2-2-2--2-2---3-3---|

4/4                                                         
--------------------------|-----------------------------|
--------------------------|-----------------------------|
--------------------------|------------------------2----|
--2------------------2----|------------------------0----|
--0--------0-3-0---0-0----|------0-3-0---0-3-0---0------|
---------3-------3--------|----3-------3-------3--------|

5/4                                   4/4
------------------------------------|------------------------|
------------------------------------|------------------------|
------------------------------------|------------------------|
------------------------------------|--5----------------5~---|
--2-2-2-2-2--4-4-4-4-4--5-5---5-5---|--3------3-5-3--2--3~---|
--0-0-0-0-0--2-2-2-2-2--2-2---3-3---|------------------------|

                            5/4
--------------------------|------------------------------------|
--------------------------|------------------------------------|
--------------------------|------------------------------------|
--------------------------|------------------------------------|
----3-5-3--2--3--2--------|--2-2-2-2-2--4-4-4-4-4--5-5---5-5---|
--------------------3--2--|--0-0-0-0-0--2-2-2-2-2--2-2---3-3---|

4/4                                        
-------------------|------------------||
-------------------|------------------||
-------------------|------------------||
-------------------|------------------||
--2----------------|------------------||
--0----------------|------------------||



RIFF I. (kíséret) (2x2)
                                                          
E||--------------------------|---------------------------|
B||--------------------------|---------------------------|
G||--------------------------|---------------------------|
D||--------9---10-------7----|--------5------------4--5--|
A||--------10-----------9----|--------7------------5-----|
E||--0--0----------0---------|--0--0-------0-0-0-0-------|


--------------------------|-----------------------------|
--------------------------|-----------------------------|
--------------------------|-----------------------------|
--------9---10-------7----|--7-7-7-7-7----7-7-7-7-4--5--|
--------10-----------9----|--5-5-5-5-5----5-5-5-5-5-----|
--0--0----------0---------|-----------------------------|



Riffek közti átkötő
                                                          
-----------------------------|---------------------------|
-----------------------------|---------------------------|
--4--4-4-4-4-4--4-4-4-4-4----|--4--4-4-4-----------------|
--4--4-4-4-4-4--4-4-4-4-5----|--4--4-4-4--3-----3-----3--|
--2--2-2-2-2-2--2-2-2-2-2----|--2--2-2-2-----2-----2-----|
-----------------------------|---------------------------|

                                                           
-----------------------------|----------------------------|
-----------------------------|----------------------------|
--4--4-4-4-4-4--4-4-4-4-4----|----------------------------|
--4--4-4-4-4-4--4-4-4-4-5----|----------------------------|
--2--2-2-2-2-2--2-2-2-2-2----|----0--5-5-0-0-5-5-0-0-6~---|
-----------------------------|----------------------------|



RIFF II.
                                                      
--------------------------|--------------------------|
--------------------------|--------------------------|
--------------------------|--------------------------|
--------------------------|--------------------------|
--2----2--2--2--2--2--2-2-|--2--2--2--2--2--2--2--2--|
--0----0--0--0--0--0--0-0-|--0--0--0--0--0--0--0--0--|

"Éppen úgy érzett..."                                                      
--------------------------|--------------------------|
--------------------------|--------------------------|
--------------------------|--------------------------|
--------------------------|--------------------------|
--2--2--2--2--2--2--2--2--|--2--2--2--2--2--2--2--2--|
--0--0--0--0--0--0--0--0--|--0--0--0--0--0--0--0--0--|

                                                       
--------------------------|---------------------------|
--------------------------|---------------------------|
--------------------------|---------------------------|
--------------2--2--2--2--|---------------------------|
--2--2--2--2--0--0--0--0--|--4--4--4--4--5--5--5--5-5-|
--0--0--0--0--------------|--2--2--2--2--3--3--3--3-3-|

                                                      
--------------------------|--------------------------|
--------------------------|--------------------------|
--------------------------|--------------------------|
--------------------------|--------------------------|
--2--2--2--2--2--2--2--2--|--2--2--2--2--2--2--2--2--|
--0--0--0--0--0--0--0--0--|--0--0--0--0--0--0--0--0--|


--------------------------|--------------------------|
--------------------------|--------------------------|
--------------------------|--------------------------|
--------------2--2--2--2--|--------------------------|
--2--2--2--2--0--0--0--0--|--4--4--4--4--5--5--5--5--|
--0--0--0--0--------------|--2--2--2--2--3--3--3--3--|



Refrén (2x)

|------------------------|-------------------------|
|------------------------|-------------------------|
|------------------------|-------------------------|
|--2----2-----2----2--2--|--2-----------2----2--2--|
|--0----0-----0----0--0--|--0--3h-0-----0----0--0--|
|----------3-------------|-----------3-------------|

                                                                         
-------------------------|--------------------|
-------------------------|--------------------|
-------------------------|--2-----------------|
--2--2-----2--2----2--2--|--0-----------------|
--0--0--0--0--0----0--0--|-----------2--------|
-------------------------|-----------3--------|



Szóló
                                                                   
--5h3h0---0h3h5h3h0h5h3h5h-3------------|-------------------------|
--------5--------------------5h3--------|-------------------------|
---------------------------------4h3h2--|-------------------------|
----------------------------------------|--5--2-------------------|
----------------------------------------|--------0h2h5h0----------|
----------------------------------------|----------------3~-------|

                                                    
---------------------2-3-5~---|--------------------|
-----------------3-5----------|--------------------|
-----------2-4-5--------------|--4b-----4b---------|
--2--2-4-5--------------------|--------------------|
------------------------------|--------------------|
------------------------------|--------------------|

                                                                           
--15h12h15h12h15h12h15h12h15h12h15h12h15h12h14h12h14h12h14h12h14h12h14h12h|
--------------------------------------------------------------------------|
--------------------------------------------------------------------------|
--------------------------------------------------------------------------|
--------------------------------------------------------------------------|
--------------------------------------------------------------------------|

                                                                           
--14h12h17h12h17h12h17h12h17h12h14h12h14h12h14h12h14h12h14h12h14h12h14h12h|
--------------------------------------------------------------------------|
--------------------------------------------------------------------------|
--------------------------------------------------------------------------|
--------------------------------------------------------------------------|
--------------------------------------------------------------------------|

                                                                           
--17h22h17h12h15h19h15h12h17h22h17h12h15h19h15h12h17h22h17h12h15h19h15h12h|
--------------------------------------------------------------------------|
--------------------------------------------------------------------------|
--------------------------------------------------------------------------|
--------------------------------------------------------------------------|
--------------------------------------------------------------------------|

                                               
--17h22h17h15h12h15h17h19h17h15h17h22b--------|
----------------------------------------------|
----------------------------------------------|
----------------------------------------------|
----------------------------------------------|
----------------------------------------------|

                                                     
--15h10----------10-12-15h-12h10-----------10-10-15-|
--------13-12-13-----------------13-12--13----------|
----------------------------------------------------|
----------------------------------------------------|
----------------------------------------------------|
----------------------------------------------------|

                                                                       
--15--10---------------------------|--17b-----15h17h15~------19-17-15-|
----------13--12h---13h12h10-------|----------------------------------|
-----------------------------12~---|----------------------------------|
-----------------------------------|----------------------------------|
-----------------------------------|----------------------------------|
-----------------------------------|----------------------------------|

                                                    
--19-17-15-14-17-15-14-17-15-14--------------------|
--------------------------------17-15-13-12~-------|
---------------------------------------------------|
---------------------------------------------------|
---------------------------------------------------|
---------------------------------------------------|

                                                     
--15h10----------10-12-15h-12h10-----------10-10-15-|
--------13-12-13-----------------13-12--13----------|
----------------------------------------------------|
----------------------------------------------------|
----------------------------------------------------|
----------------------------------------------------|

                                               
--15--10--------------------------------------|
----------13--12h13h12h10---------------------|
--------------------------12h11h12h11/9-------|
----------------------------------------12~---|
----------------------------------------------|
----------------------------------------------|

Haragban a világgal (Ossian) Gitártab és Akkordok

Csendesen (Ossian) Gitártab és Akkordok

A Csendesen című dal az Ossian zenekar Hangerőmű című albumán található. A Hangerőmű az együttes tizenkettedik nagylemeze, mely 2003-ban jelent meg. Az előző albumuk után jóval direktebb, metálosabb anyagra számíthatnak a rajongók. A Csendesen című felvétel hivatalosan bónuszként került a lemezre, hiszen akusztikus balladaként eltér a többi daltól. A 4 perc 1 másodperces zeneszám szövege megérintő, arról szól, hogy rábízhatjuk valakire a titkainkat, aki meghallgat és figyel ránk. A “Hangerőmű” turné klubok helyett nagyobb méretű helyeken zajlott, valószínűleg nagy élmény lehetett élőben is hallani ezt a balladát.

Ossian – Csendesen

Em                
Szép, nyugodt dallam
           C
Kékes füstben, szomorúan
 Em                  Am
Átölel, elvarázsol
Em
Elrepít engem
           C
Távol holnaptól, mától
           Am   D                  Em
Visszahív a tiszta tegnapba

Átcsaphat feletted
a hullámok hada
Sorsod lehet mostoha
Vésd fel hangjegyekkel
A háborgó égre 
Légy most Te a béke temploma

C         Em
Ülj hát le
                        G
Pihenj meg velem
        Am                              G
Ha gondod van, mondd el nekem
C           Em
Figyelj rám
                         G 
Bíznod kell bennem
Em             C                   D
Titkainkat őrzöm szívemben...csendesen

Szép, nyugodt dallam
Elringattam vele magam
Álommá vált a nagyvilág
Virraszd át együtt velem
Ezt az éjszakát
Szökjünk át a holnap hajnalba

Ülj hát le
Pihenj meg velem
Ha gondod van, mondd el nekem
Figyelj rám, bíznod kell bennem
Titkainkat őrzöm szívemben...csendesen

Csendesen (Ossian) Gitártab és Akkordok