Ki Véd Meg? (Ossian) Gitártab és Akkordok

A Ki véd meg? Avagy a Kelet-európai rocksztár ballada a maga 4 perc 11 másodperces hosszúságával az Ossian együttes leghosszabb dalai közé tartozik. A zenekar hatodik nagylemezén hallható, amely az Emberi dolgok címet kapta. Ha megnézzük a dalok listáját, a címek valóban a mindennapi életünkre utalnak, néhányat említve: Újra együtt, Átverés, Betelt a pohár. Az 1993-as korong folytatja a Kitörés album irányvonalát. Erős dallamok, gazdag vokálok jutottak itt is fontos szerephez. Paksi Endre mellett, aki több Ossian-album producere volt már, egy másik tag, Maróthy Zoltán vállalta ezt a szerepet.

Ossian: Ki Véd Meg?

Kéred a legnépszerűbb dalok kottáit PDF-ben az emailedre INGYEN??

Ákos - Edda - Beatles - Republic - Quimby - LGT - Kispál és a Borz - Zorán - Rod Stewart - Nagy Feró és sokan mások....

Intro
                                                                            
E||-------------------|-------------------------|--------------------------|
B||-------------------|-------2-----2--------2--|-----2--------2-----------|
G||-------------------|----------4-----4--------|--4-----4--------4--------|
D||-------------------|-------------------4-----|-----------4--------4-----|
A||----------------0--|--2----------------------|-----------------------0--|
E||-------------------|-------------------------|--------------------------|

-------------------------|--------------------------||
-------2-----2--------2--|-----2--------2-----------||
----------4-----4--------|--4-----4--------4--------||
-------------------4-----|-----------4--------4-----||
--2----------------------|-----------------------0--||
-------------------------|--------------------------||


Kíséret (clean)
                                                        
E||-------------------------|--------------------------|
B||-------2-----2--------2--|-----2--------2-----------|
G||----------4-----4--------|--4-----4--------4--------|
D||-------------------4-----|-----------4--------4-----|
A||--2----------------------|-----------------------0--|
E||-------------------------|--------------------------|

                                                                              
-------------------------|--------------2----------|-------------------------|
-------2-----2--------2--|-----2------------2------|-------------2--------3--|
----------4-----4--------|--4-----4-------------4--|----------4-----4--------|
-------------------4-----|-----------4-------------|--5----5-----------5-----|
--2----------------------|-------------------------|-------------------------|
-------------------------|-------------------------|-------------------------|

                                                      
--------0-----------------|-----------------------0--|
-----------3--------2--0--|--------0-----0-----------|
--4-----------4-----------|-----3-----3-----3--------|
-----5-----------5--------|--4-----------------4-----|
--------------------------|--------------------------|
--------------------------|--------------------------|

                      (2x)
--------------------------||
--0-----------0-----------||
-----3-----3-----3--------||
--------4-----------4-----||
-----------------------0--||
--------------------------||


Átkötő a második refrén után (distortion)
                                                           
E||------------------------|------------------------------|
B||------------------------|-------------2----------2--3--|
G||------------------------|----------------4-4-4-4-4-----|
D||--4-4-4-4-4/---x--------|--4--4-4-4-4------------------|
A||--2-2-2-2-2/---x--------|--2--2-2-2--------------------|
E||------------------------|------------------------------|

                                                 
-----------------------|-----------------------||
-----------------------|------------2br--------||
-----------------------|-----------------------||
--4-4-4-4-4------------|--4--4-4-4-------------||
--2-2-2-2-2------------|--2--2-2-2-------------||
-----------------------|-----------------------||


Kíséret (a második refrén után) (distortion)
                                                         
E||-----------------------|-----------------------------|
B||-----------------------|------------2----------2--3--|
G||-----------------------|---------------4-4-4-4-4-----|
D||--4-4-4-4-4------------|--4--4-4-4-------------------|
A||--2-2-2-2-2------------|--2--2-2-2-------------------|
E||-----------------------|-----------------------------|

                                                                          
-----------------------|------------2------------|-----------------------|
-----------------------|-----------------2-------|-----------------------|
-----------------------|----------------------2--|-----------------------|
--4-4-4-4-4------------|--4--4-4-4---------------|-----------------------|
--2-2-2-2-2------------|--2--2-2-2---------------|--7-5-5-5-5------------|
-----------------------|-------------------------|--5-3-3-3-3------------|

                                                       
------------------------------|-----------------------|
------------------------------|-----------------------|
------------------------------|-----------------------|
------------------------------|-----------------------|
--7-5-5-5-5--7-5-5-5-5--5--7--|--4-4-4-4-4------------|
--5-3-3-3-3--5-3-3-3-3--3--5--|--2-2-2-2-2------------|

                                  
--------------------------------||
--------------------------------||
--------------------------------||
--------------------------------||
--4-4-4-4-4-4-4--4-4-4-4-4--4-4-||
--2-2-2-2-2-2-2--2-2-2-2-2--2-2-||


Kíséret 2. (a második refrén után) (distortion)
                                                              
E||----------------------------|-----------------------------|
B||----------------------------|------------2----------2--3--|
G||----------------------------|---------------4-4-4-4-4-----|
D||--4-4-4-4-4--4--4--4--4--4--|--4--4-4-4-------------------|
A||--2-2-2-2-2--2--2--2--2--2--|--2--2-2-2-------------------|
E||----------------------------|-----------------------------|

                                                       
----------------------------|------------2------------|
----------------------------|-----------------2-------|
----------------------------|----------------------2--|
--4-4-4-4-4--4--4--4--4--4--|--4--4-4-4---------------|
--2-2-2-2-2--2--2--2--2--2--|--2--2-2-2---------------|
----------------------------|-------------------------|

                                                           
----------------------------|-----------------------------|
----------------------------|-----------------------------|
----------------------------|-----------------------------|
----------------------------|-----------------------------|
--5-5-5-5-5--5--5--5--5--5--|--5--5-5-5-5-5--5-5-5-5-5----|
--3-3-3-3-3--3--3--3--3--3--|--3--3-3-3-3-3--3-3-3-3-3----|

                                                           
----------------------------|----------------------------||
----------------------------|----------------------------||
----------------------------|----------------------------||
----------------------------|----------------------------||
--4-4-4-4-4--4--4--4--4--4--|--4--4-4-4-4-4---4-4-4-4----||
--2-2-2-2-2--2--2--2--2--2--|--2--2-2-2-2-2---2-2-2-2----||


Refrén (2x, 4x)
                                                                       
E||--------------------|-----------------------|----------------------|
B||--------------------|-----------------------|----------------------|
G||--------------------|-----------------------|--2--------2--2--2----|
D||--------------------|-----------------------|--2--------2--2--2----|
A||--7--------5--------|--4~-----3----2--0-----|--0--------0--0--0----|
E||--------------------|--------------------3--|----------------------|

                          
------------------------||
------------------------||
------------------------||
--5---------------------||
--5---------------------||
--3------3--3--0--2--3--||


Szóló
                                                                          
E||--------------------|------------------------------|------------------|
B||--------------------|------------15--14------------|------------------|
G||--------------------|----14--16----------14---14---|------------------|
D||--16~---------------|------------------------------|------------------|
A||--------------------|------------------------------|------------------|
E||--------------------|------------------------------|------------------|

                                                                  
------------------------|--10--9---------------10----9-----------|
--12h-------------------|---------10--7-----------------10--7----|
-----11----11~----------|----------------9--7--------------------|
------------------------|----------------------------------------|
------------------------|----------------------------------------|
------------------------|----------------------------------------|

                                
--10--9------------------------|
---------10--7-----------------|
----------------9--7--6~-------|
-------------------------------|
-------------------------------|
-------------------------------|

                                                 
------------------------------------------------|
----------------8h9h10h9h8h7h8h9h10h9h8---------|
-----------9-11-------------------------11h9----|
---9-11-12-----------------------------------12h|
------------------------------------------------|
------------------------------------------------|

                                                                                
-------------------------------|----------------------|------------------------|
-------------------------------|----------------------|------------------------|
-------------------------------|----------------------|------------------------|
--11h12h14h12h11h9-8~----------|--9~-----7----7--9----|----2----4--4--7--7--9--|
-------------------------------|----------------------|------------------------|
-------------------------------|----------------------|------------------------|

                                                                                
----------------------------|-----------------------------|--------------------|
----------------------------|-----------------------------|--------------------|
------------7-7-----9-9-----|--7-7-----9-9-----11----7----|--9b---------9b-----|
--9------9------9-9-----9-9-|------9-9-----9-9------------|--------------------|
----------------------------|-----------------------------|--------------------|
----------------------------|-----------------------------|--------------------|

                                                                         
---------------------|-------------------------|------------------------|
---------------------|-------------------------|------------------------|
------9~---------11--|--11---9---7--11--9------|--11--9----11--9/-------|
---------------------|-------------------------|------------------------|
---------------------|-------------------------|------------------------|
---------------------|-------------------------|------------------------|

                                
----------12h14h17h19t---------|
--15-----------------------15--|
-------------------------------|
-------------------------------|
-------------------------------|
-------------------------------|

                                                    
---------21h17h19h21t-----17h15h17h19h17h15h14h21t-|
---17h19h------------------------------------------|
---------------------------------------------------|
---------------------------------------------------|
---------------------------------------------------|
---------------------------------------------------|

                                                                        
--17h19h21h19h17h15h17h15----------21h19h17h15h14h17h14-------21h19h17h|
--------------------------19h17h15----------------------17h15----------|
-----------------------------------------------------------------------|
-----------------------------------------------------------------------|
-----------------------------------------------------------------------|
-----------------------------------------------------------------------|

                                                       
--15h14h17h14----------14h17h14-----------------------|
--------------17h15h17t---------17h15h17h-14h17h12h17h|
------------------------------------------------------|
------------------------------------------------------|
------------------------------------------------------|
------------------------------------------------------|

                                                    
--------------------------|------------------------|
--10h12---------14----15--|--14b-----12--12~-------|
--------------------------|------------------------|
--------------------------|------------------------|
--------------------------|------------------------|
--------------------------|------------------------|

                                                       
--------------10--14--12--10h9h10h9-----------10--14--|
--12--11--12------------------------12h11h12----------|
------------------------------------------------------|
------------------------------------------------------|
------------------------------------------------------|
------------------------------------------------------|

                                                                     
--12--10h9h10h9--------------------10----|--10~-----9/--x----10-----|
----------------12h11h12h15h12~----------|----------------7------7--|
-----------------------------------7-----|--7~----------------------|
-----------------------------------------|--------------------------|
-----------------------------------------|--------------------------|
-----------------------------------------|--------------------------|

                                                                             
--9-----7-----9---10---12--|--14------14/---19--21--21~-|--------------0----|
-----7-----7---------------|----------------------------|-------------------|
---------------------------|----------------------------|-------------------|
---------------------------|----------------------------|-------------------|
---------------------------|----------------------------|-------------------|
---------------------------|----------------------------|-------------------|

                                                                           
--15-17-19-17-15-14-15-17-14-15-17-19-17-15-14-15-17-15-17-19-15----------|
-----------------------------------------------------------------17-19-20-|
--------------------------------------------------------------------------|
--------------------------------------------------------------------------|
--------------------------------------------------------------------------|
--------------------------------------------------------------------------|

                                                                           
--17----------------------------------14-15-14----------------------------|
-----19-17-19-20-19-17-19-17-15----------------17-15-12-14-15-14-12-------|
--------------------------------16-18-------------------------------14-11-|
--------------------------------------------------------------------------|
--------------------------------------------------------------------------|
--------------------------------------------------------------------------|

                                                                       
----------------------------------------------------------------------|
----------------------------------------------------------------------|
--12-14-12-11-------------11-12-14-12-11------------------------------|
--------------14-11-12-14----------------14-12-11---------9-11-9-9-11-|
--------------------------------------------------9-10-12-------------|
----------------------------------------------------------------------|

                                                           
-------------------------------------|--------------------|
-------------------------------------|--------------------|
-----9---------------11---12---14----|--16~---------------|
--12---11-9----9-11------------------|--------------------|
------------12-----------------------|--------------------|
-------------------------------------|--------------------|

                                                                               
--------------------------------|------------------------|-------------------||
--15h-----14h---12--------------|------------------------|-------------------||
----------------------14----11--|----------------11/-----|--4----------------||
--------------------------------|------------------------|-------------------||
--------------------------------|----12----14------------|-------------------||
--------------------------------|------------------------|-------------------||

Ki Véd Meg? (Ossian) Gitártab és Akkordok