Prosectura Party agitáció akkordok címkéhez tartozó bejegyzések

Party agitáció (Prosectura) Gitártab és Akkordok

A Party Agitáció a zenekar Banális Coitus című albumának tizenkettedik felvétele. 3 perc 2 másodpercig tart, rövid benne a szöveg. A dalszöveg elég elvont, nehezen kikövetkeztethető, hogy miről szól. A számot tartalmazó albumot az E.Z.S Music adta ki. A négytagú banda mint több korongjánál is, a Bikini Stúdióban készítette a felvételeket. A hangmérnök Vedres Joe volt, a borítón lévő grafikát Czirok Róbert készítette.

          
          Prosectura - Party agitáció


Bevezető és átvezető dallam (+swing):
  e |---------------|---------------|---------------|---------------|
  H 46-646-646-646764---------------|6-646-646-646764---------------|
  G |---------------|6-656-656---6564---------------|6-656-656---6564
  D |---------------|---------------|---------------|---------------|
  A |---------------|---------------|---------------|---------------|
  E |---------------|---------------|---------------|---------------|
  e |---------------|---------------|---------------|---------------|
  H |6-646-646-646764---------------|6-646-646-646764---------------|
  G |---------------|6-656-656---6564---------------|6-656-656------|
  D |---------------|---------------|---------------|---------------|
  A |---------------|---------------|---------------|---------------|
  E |---------------|---------------|---------------|---------------|


Bevezető basszus első része:
  e |---------------|---------------|---------------|---------------|
  H |---------------|---------------|---------------|---------------|
  G |---------------|---------------|---------------|---------------|
  D |---------------|---------------|---------------|---------------|
  A |---8-----------|---4>99--------|---8-----------|---4>99--------|
  E |6-----6------6>22--------------|6-----6------6>22--------------|


Bevezető basszus második része és átvezető basszus:
  e |---------------|---------------|---------------|---------------|
  H |---------------|---------------|---------------|---------------|
  G |---------------|---------------|---------------|---------------|
  D |---------------|---------------|---------------|---------------|
  A |8---8---8----11|4---4---4-----6|8---8---8----11|4---4---4------|
  E |6---6---6-----9|2---2---2-----4|6---6---6-----9|2---2---2------|


A#m  A#m-A#m=C#  F#  F#-F#=G#  (x4)


 A#m                A#m   -  A#m=C#
Fegyver a kézben, szádban a makk
 F#               F# - F#=G#
Várunk, jöjj hát velünk
 A#m                   A#m  -  A#m=C#
Láttunk mi már néhány segglyukat
 F#                 F# - F#=G#
Nem kell, nem kell nekünk


Ne hallgasd meg őket, ha szólnak neked
Tőlünk tudd meg, mi szép
Bunkók vagyunk, de szép gyermekek
  F#              F# - F#=A#m
Hadd szakadjon a fék


 G#    G#-C#=G#  A#m  \
Váóváóvá parti
 G#    G#-C#=G#  A#m  \
Váóváóvá parti
G# G#-C#=G# G# G#-C#=G#
     Parti,   parti
G# G#-C#=G#
     Parti


A#m  A#m-A#m=C#  F#  F#-F#=G#  (x4)


Fegyver a kézben, szádban a makk...


Ne hallgasd meg őket, ha szólnak neked...


Váóváóvá parti...


A#m  A#m-A#m=C#  F#  F#-F#=G#  (x4)

Party agitáció (Prosectura) Gitártab és Akkordok