Télhercegnő (Ossian) Gitártab és Akkordok

Az Ossian ezen dala a tizenegyedik nagylemezén jelent meg, 2002-ben. Az album egyes dalszövegeit mozifilmek ihlették, ezért is találhatóak rajta filmzenei megoldások, és ezért hallhatók vonósok is rajta. Ezen az albumon szerepel először Erdélyi Krisztián basszusgitáros, akivel kialakult a csapat jelenlegi felállása. A Tél hercegnőjében is közreműködött Küronya Miklós basszusgitárral, illetve a vonós Veér Bertalan, Hegyaljai-Boross Zoltán és Négyesi Katalin. A zeneszám mintha egy mese-vagy filmbeli alakot idézne, a hófehér hajú, deret hozó tél hercegnőjét. De ez figura megszemélyesíthet egy létező nőt is: “Van különb száz/ Történhet bármi/ Nekem így marad meg ő/ Csodák között az első”.

Ossian: Télhercegnő

Kéred a legnépszerűbb dalok kottáit PDF-ben az emailedre INGYEN??

Ákos - Edda - Beatles - Republic - Quimby - LGT - Kispál és a Borz - Zorán - Rod Stewart - Nagy Feró és sokan mások....

Kezdő dallam (distortion)
                                                                        
D||----------------10-----|--------------------|--10------------10-----|
A||--12----------------8--|--12----------------|--------------------8--|
F||-----------------------|--------------------|-----------------------|
C||-----------------------|--------------------|-----------------------|
G||-----------------------|--------------------|-----------------------|
D||-----------------------|--------------------|-----------------------|

                                                                 
-------------------|----------------10-----|--------------------|
-------------------|--12----------------8--|--12----------------|
--9----------------|-----------------------|--------------------|
-------------------|-----------------------|--------------------|
-------------------|-----------------------|--------------------|
-------------------|-----------------------|--------------------|

                                                                                
----------------10-----|--------------------|
--10----------------7--|--10----------------|
-----------------------|--------------------|
-----------------------|--------------------|
-----------------------|--------------------|
-----------------------|--------------------|



Kíséret (clean) - Gitár I.
                                                       
--------3----2----3------|--------2----3----2------|--------3----2----3------|
-------------------------|-----3-----3----3--------|-------------------------|
-----4-----4----4--------|-------------------------|-----4-----4----4--------|
-------------------------|-------------------------|-------------------------|
-------------------------|--2----------------------|-------------------------|
--3----------------------|-------------------------|--3----------------------|

                                                                              
--------3----2----3------|--------3----2----3------|--------2----3----2------|
-------------------------|-------------------------|-----3-----3----3--------|
-----4-----4----4--------|-----4-----4----4--------|-------------------------|
-------------------------|-------------------------|-------------------------|
-------------------------|-------------------------|--2----------------------|
--0----------------------|--3----------------------|-------------------------|

                                                                          
--------2----3----2------|---------------------|
-----3--3--3-3--3-3------|--2------2--2--------|
--2----------------------|--2------2--2--------|
-------------------------|---------------------|
-------------------------|---------------------|
-------------------------|---------------------|


Kíséret (clean) - Gitár II.
                                                                              
--------7----5----7------|--------5----7----5------|--------7----5----7------|
-----8-----8----8--------|-----7-----7----7--------|-----8-----8----8--------|
--7----------------------|--7----------------------|--7----------------------|
-------------------------|-------------------------|-------------------------|
-------------------------|-------------------------|-------------------------|
-------------------------|-------------------------|-------------------------|

                                                          
---------12-----10-----12------|--------7----5----7------|
-----12------12-----12---------|-----8-----8----8--------|
--9----------------------------|--7----------------------|
-------------------------------|-------------------------|
-------------------------------|-------------------------|
-------------------------------|-------------------------|

                                                           
--------5----7----5------|----------14-----15-----14------|
-----7-----7----7--------|------15------15-----15-15------|
--7----------------------|--14----------------------------|
-------------------------|--------------------------------|
-------------------------|--------------------------------|
-------------------------|--------------------------------|

                                                                             
--9-------9---9---------|
--10------10--10--------|
------------------------|
------------------------|
------------------------|
------------------------|


Szóló (clean)
                                                              
----------------------------|--------15h14h15/19-15-14~------|
--------------15-12~--------|----12--------------------------|
----12-14-16----------------|--------------------------------|
----------------------------|--------------------------------|
----------------------------|--------------------------------|
----------------------------|--------------------------------|

                                                          
----------------------------|--------15-14-12------------|
--------------15-12~--------|----12-----------15b--------|
----12-14-16----------------|----------------------------|
----------------------------|----------------------------|
----------------------------|----------------------------|
----------------------------|----------------------------|

                                                                       
--------15-14------14-12----12-10-------|-----------------------------|
----12---------12--------12----------10b|------10---------------------|
----------------------------------12----|---------12-9h7--------------|
----------------------------------------|----------------9-7-9~-------|
----------------------------------------|-----------------------------|
----------------------------------------|-----------------------------|

                                                                              
----------------12~----------|--15-15h14h12-14-14h12h10-12-12h10h9-10-10h9h7-|
-------10-11-12--------------|-----------------------------------------------|
--9-12-----------------------|-----------------------------------------------|
-----------------------------|-----------------------------------------------|
-----------------------------|-----------------------------------------------|
-----------------------------|-----------------------------------------------|


Szóló (distortion)
                                                        
--17b-----17-15-------------------|--------------------|
----------------17h19-15----17h19-|--------------------|
----------------------------------|--16~---------------|
----------------------------------|--------------------|
----------------------------------|--------------------|
----------------------------------|--------------------|

                                                          
--17b-----17-15-------------22/-|--17~-----19/-----------|
----------------17h19-15--------|--------------17~-------|
--------------------------------|------------------------|
--------------------------------|------------------------|
--------------------------------|------------------------|
--------------------------------|------------------------|

                                                         
--19-17-------------------15-14-------------------------|
--------17-------------17-------17-x--------14h15h14h12h|
--------------------14-------------x--------------------|
-----------21~---17----------------x--------------------|
-------------------------------------14~----------------|
--------------------------------------------------------|

                                                                     
--------------------------------|--15h17h15h14----------------------|
--14~-----12h14h12h10h12~-------|--------------15-------------------|
--------------------------------|-----------------16-14~------14/---|
--------------------------------|-----------------------------------|
--------------------------------|-----------------------------------|
--------------------------------|-----------------------------------|

                                                                           
-------------------------------------------------|------------------------|
--15h17h15h14-------17~-----------------14-15-16-|--17/-------------------|
--------------14---------------------14----------|------------------------|
-----------------14------------11-14-------------|------------------------|
----------------------------12-------------------|------------------------|
-------------------------12----------------------|------------------------|


Refrén (distortion) - Gitár I.
                                                      
D||---------------------------|----------------------|
A||---------------------------|----------------------|
F||---------------------------|----------------------|
C||---------------------------|--7------7--7------6--|
G||--7/-----------------------|--5------5--4------4--|
D||--7/--0-3-5-7----0--3-5-7--|----------------------|

                                                                               
---------------------------|----------------------|---------------------------|
---------------------------|----------------------|---------------------------|
---------------------------|----------------------|---------------------------|
---------------------------|--2------2--7----7----|---------------------------|
--9/--------9-----------9--|--0------0--4----5----|--7/-----------------------|
--7---2-5-7------2--5-7----|----------------------|--7/--0-3-5-7----0--3-5-7--|

                                                                          
----------------------|---------------------------|----------------------|
----------------------|---------------------------|----------------------|
----------------------|---------------------------|----------------------|
--7------7--7------6--|---------------------------|--2------2--7----7----|
--5------5--4------4--|--9/--------9-----------9--|--0------0--4----5----|
----------------------|--7---5-5-7------5--5-7----|----------------------|


Refrén (distortion) - Gitár II.
                                                      
D||---------------------------|----------------------|
A||---------------------------|----------------------|
F||---------------------------|----------------------|
C||---------------------------|--7------7--7------6--|
G||--7/-----------------------|--5------5--4------4--|
D||--7/--0-3-5-7----0--3-5-7--|----------------------|

                                                                               
---------------------------|----------------------|---------------------------|
---------------------------|----------------------|---------------------------|
---------------------------|----------------------|---------------------------|
---------------------------|--2------2--7----7----|---------------------------|
--9/--------5-----------5--|--0------0--4----5----|--7/-----------------------|
--7---2-5-7------2--5-7----|----------------------|--7/--0-3-5-7----0--3-5-7--|

                                                                          
----------------------|---------------------------|----------------------|
----------------------|---------------------------|----------------------|
----------------------|---------------------------|----------------------|
--7------7--7------6--|---------------------------|--2------2--7----7----|
--5------5--4------4--|--9/--------5-----------5--|--0------0--4----5----|
----------------------|--7---5-5-7------5--5-7----|----------------------|


Végjáték kíséret (distortion) - Gitár I.
                                                                     
------3-------3-------3-------3--|------2-------2-------2-------2---|
----3---3---3---3-------3---3----|----3---3---3---3---3---3---3---3-|
--4-------4-------4-4-----4------|--4-------4-------4-------4-------|
---------------------------------|----------------------------------|
---------------------------------|----------------------------------|
---------------------------------|----------------------------------|

                                                                     
------3-------3-------3-------3--|------3-------3-------3-------3---|
----3---3---3---3---3---3---3----|----3---5---5---5---5---5---5---5-|
--4-------4-------4-------4------|--4-------4-------4-------4-------|
---------------------------------|----------------------------------|
---------------------------------|----------------------------------|
---------------------------------|----------------------------------|

                                                                     
------3-------3-------3-------3--|------2-------2-------2-------2---|
----3---3---3---3-------3---3----|----3---3---3---3---3---3---3---3-|
--4-------4-------4-4-----4------|--4-------4-------4-------4-------|
---------------------------------|----------------------------------|
---------------------------------|----------------------------------|
---------------------------------|----------------------------------|

                                                                      
------2-------2-------2-------2---|--------0-------0-------0-------0-|
----3---3---3---3---3---3---3---3-|--2---2---2---2---2---2---2---2---|
--2-------2-------2-------2-------|----2-------2-------2-------2-----|
----------------------------------|----------------------------------|
----------------------------------|----------------------------------|
----------------------------------|----------------------------------|


Végjáték kíséret (distortion) - Gitár II.
                                                                      
------7-------7-------7-------7---|------5-------5-------5-------5---|
----8---8---8---8---8---8---8---8-|----7---7---7---7---7---7---7---7-|
--7-------7-------7-------7-------|--7-------7-------7-------7-------|
----------------------------------|----------------------------------|
----------------------------------|----------------------------------|
----------------------------------|----------------------------------|

                                   
------7-------7-------7-------7---|
----8---8---8---8---8---8---8---8-|
--7-------7-------7-------7-------|
----------------------------------|
----------------------------------|
----------------------------------|

                                                   
--------12----------12----------12----------12----|
-----12----12----12----12----12----12----12----12-|
--12----------12----------12----------12----------|
--------------------------------------------------|
--------------------------------------------------|
--------------------------------------------------|

                                                                      
------7-------7-------7-------7---|------5-------5-------5-------5---|
----8---8---8---8---8---8---8---8-|----7---7---7---7---7---7---7---7-|
--7-------7-------7-------7-------|--7-------7-------7-------7-------|
----------------------------------|----------------------------------|
----------------------------------|----------------------------------|
----------------------------------|----------------------------------|

                                                   
--------14----------14----------14----------14----|
-----15----15----15----15----15----15----15----15-|
--14----------14----------14----------14----------|
--------------------------------------------------|
--------------------------------------------------|
--------------------------------------------------|

                                                                               
-------9----10----9---------9---------9----|
----10---10----10---10---10---10---10---10-|
--9--------------------9---------9---------|
-------------------------------------------|
-------------------------------------------|
-------------------------------------------|

Télhercegnő (Ossian) Gitártab és Akkordok