Tag Archives: Prosectura Akárki szalámi gitárkotta

Akárki szalámi (Prosectura) Gitártab és Akkordok

A Prosectura egy magukat önkéntes tűzoltó- és lendületzenekarnak mondó magyar punkegyütttes. 1989-ben alakultak Szekszárdon, azóta is aktívan zenélnek. A zenekar stílusa elég nyers, szókimondó. Erre jó példa az Akárki szalámi című daluk, melyben olyan kifejezések szerepelnek, mint a nyalják üleped. A dalszöveg arról szól, hogy bizonyos dolgok mindenkinek jók, például: “Neked is jó ha szépen kérnek/ Neked is jó ha nem kell félned”. Az Akárki Szalámi egy kitalált nevet helyettesít a dalban (“Én sem vagyok rosszabb, mint Akárki Szalámi”).

          
          Prosectura - Akárki szalámi


Bevezető első verszak (+swing):
  e |----4-------4--|----4-----------|----4-------4--|----4-----------|
  H |----4-------4--|----4-----------|----4-------4--|----4-----------|
  G |---------------|----------------|---------------|----------------|
  D |6--------------|6---------3-5---|6--------------|6---------3-5---|
  A |--------6------|--------6-----6-|--------6------|--------6-----6-|
  E |---------------|----------------|---------------|----------------|
  e |----4-------4--|----4-----------|------------6--|----6-----------|
  H |----4-------4--|----4-----------|----8-------8--|----8-----------|
  G |---------------|----------------|----8----------|----------------|
  D |6--------------|6-------6-5-4-3-|---------------|----------------|
  A |--------6------|----------------|6--------------|6-------6-4-3---|
  E |---------------|----------------|--------6------|--------------6-|
  e |----4-------4--|----4-----------|----4-------4--|----4-----------|
  H |----4-------4--|----4-----------|----4-------4--|----4-----------|
  G |---------------|----------------|---------------|----------------|
  D |---------------|6---------3-5---|6--------------|6---------3-5---|
  A |--------6------|--------6-----6-|--------6------|--------6-----6-|
  E |4--------------|----------------|---------------|----------------|
  e |----4-------4--|4---------------|
  H |----4-------4--|4---------------|
  G |---------------|5---------------|
  D |6--------------|6---------------|
  A |--------6------|6---------------|
  E |---------------|4---------------|


Állsz az út szélén nézel énfelém
Az égre nézek én mert állsz az út szélén
Látod itt vagyok meg folyton itt vagyok
Mert nem lehetek ott ahol vagyok


A#m  Cm  C#  D#


 G#                \
Neked is jó, ha szembe dícsérnek
 C#               \
Neked is jó, ha tetszel nekik
 G#                \
Neked is jó, ha nyalják üleped
    D#                 \
Ezt értsd, ahogy akarod!


Neked is jó, ha fizetik söröd
Neked is jó, ha szerzik örömöd
Neked is jó, ha aládnyúlnak
Ezt értsd, ahogy akarod!


 C#             \   Cm               Fm
Tőlem se várj mást, én is az életből élek
C#              \            Cm       Fm
Én sem vagyok rosszabb, mint Akárki Szalámi
     D#                \
Hát ne legyél már rám kiváncsi


 G#            Fm                D#   \
Látod itt vagyok, és a nagyokat lesem
 G#             Fm                       D#   \
Nem születtem hősnek, de valld be, hogy te sem
 G#            Fm                D#   \
Látod itt vagyok, és a nagyokat lesem
 G#             Fm                       D#  C#  Cm  D#
Nem születtem hősnek, de valld be, hogy te sem


Neked is jó, ha szépen kérnek
Neked is jó, ha nem kell félned
Neked is jó, ha jó neked
Ezt értsd ahogy akarod!


Neked is jó, ha arcodba nem kapsz
Neked is jó, ha élvezed ezt azt
Neked is jó, ha belédhelyeznek
Ezt, azt, ezt, azt!


Mit vársz tőlem ezt azt, mondd csak kérlek, hülyének nézel
Miért adjak, ha én sem kapok, se tőled, se tőle, se senkitől
Se Fréditől, se Bénitől


Látod itt vagyok és a nagyokat lesem...


G#  \  \  \
G#  \  D#-C#  Cm-A#m  D#  \


Tőlem se várj mást, én is az életből élek...


Látod itt vagyok, és a nagyokat lesem...


G#|-G#|  G#|

Akárki szalámi (Prosectura) Gitártab és Akkordok