Disznók tánca (Kispál és a Borz) Gitártab és Akkordok

Kispál és a Borztól lévő Disznók tánca című szám 1997-ben jelent meg. Ez a dal a Bálnák, ki a partra című albumban található  meg. Ez a szám a táncról és a disznóságról szól. Egy olyan világról, ahol az ördög egy buliban bizonyos embereket disznóvá változtatott, akik egész éjszaka táncoltak.

Kispál és a Borz – Disznók tánca

 

 

Kéred a legnépszerűbb dalok kottáit PDF-ben az emailedre INGYEN??

Ákos - Edda - Beatles - Republic - Quimby - LGT - Kispál és a Borz - Zorán - Rod Stewart - Nagy Feró és sokan mások....

Intro:

H---1-0-1------------1-0-1-----------
G-----------2-0--------------2-------
D---------------4--------------------  x4
A-0-------0--------0-------0-------0-
E------------------------------4-1---

H---5-4-5------------5-4-5-----------
G---5-4-5---2-0------5-4-5----2------
D---------------4--------------------  x2
A-0-------0--------0-------0-------0-
E------------------------------4-1---

  F    A          C          C#
A------0-0-0-0-0--3-3-3-3-3--4-4-4-4-4-- x4
E-1-1-----------------------------------

E-----------------------------------------------------------------
H------1-------1--------------------------------------------------
G------0-------0-------2-------0----------------------------------
D--2-2-----2-2---2s3-3---3-----2----------------------------------
A--------0-----------------3-3---3--------------------------------
E-----------------------------------------------------------------

Solo:

E------------------------10s8-8s10-10s8-8s6-6s8-8s6-6s8--
H-10-10s6-6s10-10s6-6s10---------------------------------

E--------------------------------------10-10-8-8-6-6-8-8-
H-9-8-9-8-9-8p9-8p9-8---6s10-10s6-6s10-------------------

E-------------------------8-----------------------------
H-11-11s10-10s11-11-10-10---10-10-10p11-10p11-10--------

       Dm        F
És egy pár üveg sörtOl
     A#        Dm     Gm A C
Majd mindenki elfelejti
Hogy az lett amit így
Pont nem akart itt senki
Az ördög tudja csak
Hogy mi volt a célja
De a húsunk került
Bele a moslékba
    Am
S a disznók
      Em
Mind felzabálták
    Am
S a holdnál nézik
   Em
A maguk árnyát

Az ól falán és
Járnak tOle körbe
Hátha úgy
Megszabadulnak tOle
És nézi az ördög és
Hátrébb nézi az Isten
És végül a szemük elOtt
táncol majd minden
S járják az ólban a disznók
S az árnyak is diszkrét diszkót

      F     C      
Muködtetnek szerény
    Am
Haszonnal
Táncolj disznó napozz holddal
Egész éjjel minden éjjel
Lehetsz velem
Fogom a kezed
Kipörgetlek, és elengedem


Táncolj disznó, napozz holddal
A Holdon nincs is sötét oldal
Egész éjjel minden éjjel
Lehetsz velem a kezed fogom
Kipörgetlek és elengedem
Pörögj disznó napozz Holddal
A Holdon nincs is sötét oldal
Az árnyak is csak fénytOl vannak
A fényt én hozom
mindnyájatoknak
Egész éjjel minden éjjel
Lehetsz velem lehetsz velem
Fogom a kezed kipörgetlek
Kipörgetlek és elengedem
És egy pár üveg sörtOl
Majd mindenki elfelejti
Hogy az lett amit így
Pont nem akart itt senki
És nézi az ördög és
Hátrébb nézi az Isten
És végül a szemük elOtt
Táncol majd minden






Disznók tánca (Kispál és a Borz) Gitártab és Akkordok